Song name
# A B C D E F G H I J K L M N O P Q R S T U V W X Y Z

Bamboo - Children Of The Sun tab

Song: Children of hte Sun
Artist: BAmboo
Album: Hallelujah
Tabbed: Aug. 24 2005
Transcribe by: Erwin Serrano Quezon City/Pangasinan 
                 (winserrano@yahoo.com)


hey guys try nyu to, di ko pa nakumpleto ung kanta kaya intro muna! :)
JUST WAIT FOR DA WHOLE SONG!!! 

Intro:

E|------------------------------------------------------------------------|
B|------------------------------------------------------------------------|
G|------------------------------------------------------------------------|
D|-----------2---\6--2--4--4hold--2h4--4--------------2---\6--2--4--4hold-|
A|---------4---4------------------------------------4---4-----------------|
E|--2--4-5-----------------------------------2--4-5-----------------------|



E|------------------------------------------------------------------------|
B|------------------------------------------------------------------------|
G|------------------------------------------------------------------------|
D|---2h4--4-------------2----\6---2--4pause---------------------4-4--0t-0-|
A|--------------------4---4---------------------2^3^2-0^2^0-0---4-4--0o-0-|
E|------------2---4-5-------------------------------------------2-2--0p-0-|


E|------------------------------------------------------------------------|
B|------------------------------------------------------------------------|
G|------------------------------------------------------------------------|
D|--0t-0t---4-4--0t-0t-0t-0t--4-4--0t-0t-0t-0t------------------4-4--0t-0-|
A|--0o-0o---4-4--0o-0o-0o-0o--4-4--0o-0o-0o-0o--2^3^2-0^2^0-0---4-4--0o-0-|
E|--0p-0p---2-2--0p-0p-0p-0p--2-2--0p-0p-0p-0p------------------2-2--0p-0-|

E|------------------------------------------------------------------------|
B|------------------------------------------------------------------------|
G|------------------------------------------------------------------------|
D|--0t-0t---4-4--0t-0t-0t-0t--4-4--0t-0t-0t-0t------------------4-4--0t-0-|
A|--0o-0o---4-4--0o-0o-0o-0o--4-4--0o-0o-0o-0o--2^3^2-0^2^0-0---4-4--0o-0-|
E|--0p-0p---2-2--0p-0p-0p-0p--2-2--0p-0p-0p-0p------------------2-2--0p-0-|

E|------------------------------------------------------------------------|
B|------------------------------------------------------------------------|
G|------------------------------------------------------------------------|
D|--0t-0t---4-4--0t-0t-0t-0t--4-4--0t-0t-0t-0t----------------------------|
A|--0o-0o---4-4--0o-0o-0o-0o--4-4--0o-0o-0o-0o--2^3^2-0^2^0-0-------------|
E|--0p-0p---2-2--0p-0p-0p-0p--2-2--0p-0p-0p-0p----------------------------|




For your comments, you can email at "winserrano@yahoo.com" or send me a message sa
friendster ko. or u can also mek ur call or txt (09223006427)
vote plz!!! tnxx
Tap to rate this tab
# A B C D E F G H I J K L M N O P Q R S T U V W X Y Z