Song name
# A B C D E F G H I J K L M N O P Q R S T U V W X Y Z

Bamboo - Kaibigan Ni Yves tab

eto ang aming compose sana magustuhan nyo!!

e--------------------------------------------------------------------|
B----23^--21s17----(16)-15s21---(16)--15^------12H10H9H7H3----2f-----|
G----------------------------------------12h13-------------------19t-|
D--------------------------------------------------------------------|
A--------------------------------------------------------------------|
E--------------------------------------------------------------------|

e--------------------------------------------------------------------|
B--------------------------------------------------------------------|
G--------------------------------------------------------------------|
D-3s17---19f--(16)---12h13H12--14f----------------------17h19-----20-|
A------12----1-----5----------3----16h23-----23f-----4s5-------12----|
E----------------------------------------3s7-----2f-------12h13------|

Legends:
H-hammer off
h-hammer
^-full bend
f_fincht
( )-half bend
s-slide


Mga pre!!! sana magustuhan nyo tong tab ko kahit di pa kami sikat kung gus2 nyo marinig
to pasukin nyo na lang site namin taengmalapot.net... oh paano hanggang d2 nalang astig
to promise...^_^
Tap to rate this tab
# A B C D E F G H I J K L M N O P Q R S T U V W X Y Z