Guitaretab - guitar tabs
Song name
# A B C D E F G H I J K L M N O P Q R S T U V W X Y Z

Bamboo - A Prayer For The Dying tab

Intro ĖAm--
e |-------------------------|
b |------------8h5----------|
g |--------5----------------|
D|---5h7--------------------|
A|--------------------------|
E|--------------------------|


VERSE-

Am          F        Am                F
Fearless people, careless needle
Am          F        Em                F
Harsh words spoken, and lives are broken
Am          F        Am                F
Forceful ageing, help me Iím fading
Am          F        Em                F
Heavenís waiting, itís time to move on

CHORUS
Guitar-
e |-------------------------------------------------|
b |-------------------------------------------------|
g |-------------------------------------------------|
D|------------------------5-3-2---------------------|
A|--------6-5-----3-3----------3-1------------------|
E|-4-3-6-------6------------------------------------|

e |---------------------------------------------------------------|
b |---------------------------------------------------------------|
g |---------------------------------------------------------------|
D|----------------------5-3-2-3-2---------------------------------|
A|--7-3ó6666666~-------------3-1ó3---666666-----------------------|
E|--5-1ó4444444~--------------------1---444444--------------------|


G#5              C5
Crossing that bridge, with lessons
Bb5
Iíve learned
                A5
Playing with fire, and not getting

F#5-G#5
burned
          C5                 Bb5
I may not know what youíre going through
               Bb5                  G#5
But time is the space between me and you
A5
Life carries on

bass
e |-------------------------|
b |-------------------------|
g |-------------------------|
D|-----------5h2------------|
A|--------3-----------------|
E|----3h5-------------------|

[ Tab from: http://www.guitaretab.com/b/bamboo/87340.html ]
DO VERSE
Just say die, and that would be pessimistic
In your mind, we can walk across water
Please donít cry, itís just a prayer for the dying
I just donít know whatís got into me

D0 CHORUS
Guitar-
e |-------------------------------------------------|
b |-------------------------------------------------|
g |-------------------------------------------------|
D|------------------------5-3-2---------------------|
A|--------6-5-----3-3----------3-1------------------|
E|-4-3-6-------6------------------------------------|

e |---------------------------------------------------------------|
b |---------------------------------------------------------------|
g |---------------------------------------------------------------|
D|----------------------5-3-2-3-2---------------------------------|
A|--7-3ó6666666~-------------------3-1ó3~---666666----------------|
E|--5-1ó4444444~-----------------------1~---444444----------------|

e |---------------------------------------------|
b |---------------------------------------------|
g |---------------------------------------------|
D|---5-3-2-3-2----------------------------------|
A|---------------3-1ó3~---666666----------------|
E|-------------------1~---444444----------------|

Been crossiní that bridge, with lessons Iíve learned
Playing with fire, and not getting burned
I may not know what youíre going through
But time is the space between me and you

          C5                 Bb5
There is a light through that window
Bb5                  G#5
Hold on say yes, while people say no
A5
Life carries on

e |---------------------------------------------------------------|
b |---------------------------------------------------------------|
g |---------------------------------------------------------------|
D|------------------10p-9----10p-9--------------------------------|
A|-3-5-3-5-7-10----------10--------10---7-8pó10~------------------|
E|--------------------------------------------8~------------------|
Repeat chorus

kulang yung tab pero kumpleto naman ung chords hehehe... by rakiztahz_03@yahoo.com
Related for A Prayer For The Dying tab