Guitaretab - guitar tabs
Song name
# A B C D E F G H I J K L M N O P Q R S T U V W X Y Z
Home / B / Bamboo / Argos tab

Bamboo - Argos tab

TITLE:       argos
ARTIST:      bamboo
ALBUM:       rounin soundtrack
TABBED BY:   silentrocker21
E-MAIL:      lorenz10_15@yahoo.com

this song goes to all of bamboo and rounin's fans... hope you people like this... add me 
friendster/myspace: lorenz10_15@yahoo.com
thankz...
(juzt msg me if u want me to tab a new rock song that you like...\m/\m/)


GUITAR TUNING : drop D

iNtRo:
e|--------------------------------------------------------------|
B|------2h3--2h3--2h3--3/5-5\3----2h3--2h3--2h3--3/6-6\3--------|
G|--------------------------------------------------------------|
D|------0----0----0----0---0------0----0----0----0---0----------|
A|--------------------------------------------------------------|
D|---0-------------------------0--------------------------------|


VeRsE:
e|--------------------------------------------------------------|
B|--------------------------------------------------------------|
G|---7-7-7-7-7-7-7-6-6-6-6-6---101010101010109-9-9-9-9----------|
D|---x-x-x-x-x-x-x-x-x-x-x-x---x-x-x-x-x-x-x-x-x-x-x-x----------|
A|---5-5-5-5-5-5-5-4-4-4-4-4---8-8-8-8-8-8-8-7-7-7-7-7----------|
D|--------------------------------------------------------------|

e|--------------------------------------------------------------|
B|---2h3--2h3--2h3--3/5-5\3----2h3--2h3--2h3--3/6-6\3-----------|
G|--------------------------------------------------------------|
D|--------------------------------------------------------------|
A|--------------------------------------------------------------|
D|--------------------------------------------------------------|


VeRsE2:
e|--------------------------------------------------------------|
B|---3-3-3-3-3-2---6-6-6-6-6-5----------------------------------|
G|--------------------------------------------------------------|
D|--------------------------------------------------------------|
A|--------------------------------------------------------------|
D|--------------------------------------------------------------|

ChOrUs:
e|--------------|
B|--------------|
G|--------------|
D|--------------|
A|--------------|
D|---PM3/12\0---|

e|--------------------------------------------------------------|
B|--------------------------------------------------------------|
G|--------------------------------------------------------------|
D|--------------------------------------------------------------|
A|-------5-3-----------------3~-------5-3-----------------------|
D|---0-------5-3-0-3~---5~--------0-------5-3-0-3~---5~---7~----|

repeat VeRsE2 (guitar only)...

BrIdGe:
(don't know what the effect is called here...)
guitar1:
e|--------------------------------------------------------------|
B|---3--2--5---6--5--3------------------------------------------|
G|--------------------------------------------------------------|
D|--------------------------------------------------------------|
A|--------------------------------------------------------------|
D|--------------------------------------------------------------|

guitar2: (just strum...)
e|-------|
B|-------|
G|-------|
D|---7---|
A|---5---|
D|-------|
[ Tab from: http://www.guitaretab.com/b/bamboo/89098.html ]
AdLiB:
GuitaR2: (repeat this for the entire adlib part...)
e|-----------------------------------------------------------------|
B|-----------------------------------------------------------------|
G|-----------------------------------------------------------------|
D|------------7------------3------------6------------12------------|
A|------------5------------5------------8------------10------------|
D|-----------------------------------------------------------------|

GuitaR1:
e|---------------------------------|
B|---------------------8------10---|
G|------7------10------------------|
D|------------------5------7-------|
A|---5------8----------------------|
D|---------------------------------|

continuation...
---------------------------------------------------------|
---------------------------------------------------------|
-----5h7p5h7p5h7p5h7p5h7p5h7p5h7p5h7/7h9p7h9p7h9/12h15---|
---7-----------------------------------------------------|
---------------------------------------------------------|
---------------------------------------------------------|

continuation...
------------------------------------------------------------|
---13h15p13h15p13h15p13h15(3x)^17-14^15v14^15v14^15v14^15---|
------------------------------------------------------------|
------------------------------------------------------------|
------------------------------------------------------------|
------------------------------------------------------------|

continuation...
---8h10T13-(17x)------13^15-13-10-13-12----------|
----------------------------------------13-------|
-------------------------------------------12~---|
-------------------------------------------------|
-------------------------------------------------|
-------------------------------------------------|

continuation...
-------------------------------8-8-8-8-8-8-8-8-8-8-8-8--------------|
---10--10--10--10-10-10------8-------------------------10-8---------|
---10--7---10--7-----7~---10--------------------------------10-7~---|
------------------10------------------------------------------------|
--------------------------------------------------------------------|
--------------------------------------------------------------------|

continuation...
-----------------------------------10-10-8/10-10-8/10-10-8/10-10-8/10~---|
--------------------------6---8/10---------------------------------------|
-----------------5--5-7-7---7--------------------------------------------|
-------------5-7---------------------------------------------------------|
---55-8-5-8--------------------------------------------------------------|
-------------------------------------------------------------------------|


REPEAT ChOrUs... (do the VeRsE2 guitar for the ending part of the song...)


Key:
T   - Tap (Strings)
PM  - Palm Muting
/   - Slide Up
\   - Slide Down
h   - Hammer-on
p   - Pull-off
~   - Let the note ringing
s   - Strum softly
c   - Continue and Continuation
^   - Bend

<---------------lyrics--------------->
verse1:
I cried for days
Wasnít sure how i got to be here
Brought to my knees
Wasnít the policy thatís inside of me
Peace i give you, hey

verse2:
And make him pay
Left throbiní on the outside, time
Youíll play your game
That you wasted for no reason
Afar from reason
Show me, show me, show me

chorus:
You say i donít belong
You say we donít belong

Well duty bounds me

bridge:
On the cover of a magazine
red colored champaigne
The girl of your dreams
A heroís weapon is what you will seek
Donít be all you can be
You can

ending:
Said we go, but not today
Related for Argos tab