Guitaretab - guitar tabs
Song name
# A B C D E F G H I J K L M N O P Q R S T U V W X Y Z

Bamboo - Todo Lakas tab

TITLE:       todo lakas
ARTIST:      bamboo
ALBUM:       colt 45 jingle
TABBED BY:   silentrocker21
E-MAIL:      lorenz10_15@yahoo.com

GUITAR TUNING : STANDARD


InTrO:
e|----------------------|
B|----------------------|
G|---5-5---5-5----------|
D|---x-x---x-x----------|
A|---3-3---3-3-3-2------|
E|-----------------1~---|

vErSe:
e|--------------------------------------------------------------|
B|--------------------------------------------------------------|
G|---5-5---5-5---(PM)5-------5-5---5-5--------------------------|
D|---x-x---x-x---(PM)x-------x-x---x-x--------------------------|
A|---3-3---3-3---(PM)3-------3-3---3-3-3-2----------------------|
E|-----------------------------------------1~-------------------|
   ^                   ^
   :-----repeat 3x-----:
         
ChOrUs:
e|--------------------------------------------------------------|
B|--------------------------------------------------------------|
G|---8/--11/--13--13/-15\-13\-11~\------------------------------|
D|---7/--10/--12/-12/-14\-12\-10~\------------------------------|
A|---5/--8/---10--10/-12\-10\-8~\-------------------------------|
E|--------------------------------------------------------------|

e|-----------------------------------------------------------------------|
B|-----------------------------------------------------------------------|
G|-----------------------------------------------------------------------|
D|-----------------------------10-10/12-10~------------------------------|
A|--10h12p-10--8h10-8~------12---------------10/12-10-8-10-8-------------|
E|-----------------------------------------------------------10-8-8h10~--|
                           ^               ^
                           :---repeat 2x---:
[ Tab from: http://www.guitaretab.com/b/bamboo/91494.html ]
e|------------------------------------------------------------------|
B|------------------------------------------------------------------|
G|------------------------------------------------------------------|
D|------------------------------10-10/12-10~---12^14v12-10-12-10~---|
A|---10h12p-10--8h10-8~------12-------------------------------------|
E|------------------------------------------------------------------|
                            ^               ^
                            :---repeat 2x---:


CoDa:

1:
e|--------------------------|
B|---------------6~---------|
G|---5-5---5-5---5~---------|
D|---x-x---x-x--------------|
A|---3-3---3-3--------------|
E|--------------------------|

2:
e|----------------------|
B|----------------------|
G|---5-5---5-5----------|
D|---x-x---x-x----------|
A|---3-3---3-3-3-2------|
E|-----------------1~---|
   ^                   ^
   :-----repeat 2x-----:

e|--------------------------------------------------------------|
B|--------------------------------------------------------------|
G|---5-5---5-5---(PM)5-------5-5---5-5--------------------------|
D|---x-x---x-x---(PM)x-------x-x---x-x--------------------------|
A|---3-3---3-3---(PM)3-------3-3---3-3-3-2----------------------|
E|-----------------------------------------1~-------------------|
   ^                   ^
   :-----repeat 2x-----:


(juzt keep repeating some parts of this coda...)





Key:
T   - Tap (Strings)
PM  - Palm Muting
/   - Slide Up
\   - Slide Down
h   - Hammer-on
p   - Pull-off
~   - Let the note ringing
s   - Strum softly
c   - Continue and Continuation
^   - Bend
*   - Harmonics




<---------------lyrics--------------->
verse:
ang lalaking tahimik minsan lang magsalita
di mayabang di kailangan
sa tayo pa lang alam mo na
tindig pa lang alam mo na, wag kang tumitig

chorus:
ho... ho... ho... ika'y masilaw saking ilaw
ho... ho... ho... umaapaw, lakas hataw
todo lakas
todo lakas

coda:
ang malakas magsalita sya'y pinapakinggan
ang malakas manindigan sya'y kinakapitan
ang malakas sumubok sya'y sinusundan
ang malakas lumaban sya'y hinahangaan
(todo lakas) kung malakas ang loob hinding hindi matataob
(todo lakas) kung malakas ang kamao hinding hindi matatalo
(todo lakas) ang bugtong ito para sa malakas
todo lakas...
Related for Todo Lakas tab
Advertisement will be closed in 10 seconds