Song name
# A B C D E F G H I J K L M N O P Q R S T U V W X Y Z

Bana - Shell tab

I used the guitar that played the intro though its pretty much the second guitar.

e|------------------------------|
B|------------------------------|
G|------------------------------|
D|---8-8-8--x-------------------|
A|---6-6-6--x--9-9--x-x--6-6-6--|
E|-------------7-6--x-x--4-4-4--|
x6

e|--6---6--|
B|--7---7--|
G|--8---8--|
D|--8---8--|
A|--6---6--|
E|---------|

e|--6-----6--7--|
B|--6--6--7--7--|
G|--7--6--8--8--|
D|--8--6--8--9--|
A|--8--4--6--9--|
E|--6--------7--|
x4

e|--6-6-6--7-6----------|
B|--7-7-7--7-6---6-6-6--|
G|--8-8-8--8-7---6-6-6--|
D|--8-8-8--9-8---6-6-6--|
A|--6-6-6--9-8---4-4-4--|
E|---------7-6----------|
x5

e|--6-----6--7--|
B|--6--6--7--7--|
G|--7--6--8--8--|
D|--8--6--8--9--|
A|--8--4--6--9--|
E|--6--------7--|
x8

e|-----------|
B|-----------|
G|--8--6--4--|
D|--8--6--4--|
A|--6--4--2--|
E|-----------|
x2

e|--6-----6--7--|
B|--6--6--7--7--|
G|--7--6--8--8--|
D|--8--6--8--9--|
A|--8--4--6--9--|
E|--6--------7--|
x4

e|--6-6-6--7-6----------|
B|--7-7-7--7-6---6-6-6--|
G|--8-8-8--8-7---6-6-6--|
D|--8-8-8--9-8---6-6-6--|
A|--6-6-6--9-8---4-4-4--|
E|---------7-6----------|
x7

e|--6---6--|
B|--7---7--|
G|--8---8--|
D|--8---8--|
A|--6---6--|
E|---------|

e|--6-----6--7--|
B|--6--6--7--7--|
G|--7--6--8--8--|
D|--8--6--8--9--|
A|--8--4--6--9--|
E|--6--------7--|
x8

e|-----------|
B|-----------|
G|--8--6--4--|
D|--8--6--4--|
A|--6--4--2--|
E|-----------|
x2

solo (dont know it)

e|--6-----6--7--|
B|--6--6--7--7--|
G|--7--6--8--8--|
D|--8--6--8--9--|
A|--8--4--6--9--|
E|--6--------7--|
x8

e|------------|
B|------------|
G|--8--6--4-4-|
D|--8--6--4-4-|
A|--6--4--2-2-|
E|------------|


Tap to rate this tab
# A B C D E F G H I J K L M N O P Q R S T U V W X Y Z