Guitaretab - guitar tabs
Song name
# A B C D E F G H I J K L M N O P Q R S T U V W X Y Z

Bananafishbones - Stripped tab

Hey guys,
this is my first tab, so don't pick on me too hard ;)
I admit this isn't the most professional tab ever seen, but feel free to rate if you like it!

That's the intro the song starts off with:
E:----------------------------------------------------|
B:-----------------------------------------------0----|
G:----------1----------0-----------0----------3-------|
D:-------2----------1-----------0----------2----------|
A:----2----------3-----------2----------0-------------|
E:-0----------3-----------3---------------------------|

And then it's basically E-C-G-D, but I'm not sure if there are better chords instead :)
[ Tab from: http://www.guitaretab.com/b/bananafishbones/182768.html ]
The second guitar that joins in at the pre-chorus should be something like this:
E:-12--------14--12------------12--------14--12-----------|
B:----12------------12-----12-----12------------12-----12-|
G:-------12------------12------------12------------12-----|
D:--------------------------------------------------------|
A:--------------------------------------------------------|
E:--------------------------------------------------------|
I guess that it's pretty easy played with a capo.

Ok, so as I said, it's by far not very professional but I hope that you have some fun with it.

Greetings

-GIsha

http://www.bananafishbones.de/