Song name
# A B C D E F G H I J K L M N O P Q R S T U V W X Y Z

Band Of Horses - Window Blues Acoustic tab

in case your about to go tell me that b o h doesnt play it this way, i know that, i 
to pack everything into a single guitar.
it's impossible to tab the perfect strum pattern for this song, just go bu-um bum baum 
bum bum baum repeat.. yeah its really hard to explain, just play along with the song.

--0------00-0-0-0-0-0-------0--0--00-0-0-0-0-0---2--2--22-2-2-2-2-2-|
--0h2-2--22-2-2-2-2-2-------0--0--00-0-0-0-0-0---2--2--22-2-2-2-2-2-|
--2---2--22-2-2-2-2-2--x2---1--1--11-1-1-1-1-1---2--2--22-2-2-2-2-2-|
--2---2--22-2-2-2-2-2-------2--2--22-2-2-2-2-2---4--4--44-4-4-4-4-4-|
--0---0--00-0-0-0-0-0-------2--2--22-2-2-2-2-2---4--4--44-4-4-4-4-4-|
----------------------------0--0--00-0-0-0-0-0---2--2--22-2-2-2-2-2-|

-2-2-2-2-2-2--0-0-0-0-0-0-0-|
-3-3-3-3-3-3--0-0-0-0-0-0-0-|
-2-2-2-2-2-2--1-1-1-1-1-1-1-|
-0-0-0-0-0-0--2-2-2-2-2-2-2-|
-0-0-0-0-0-0--2-2-2-2-2-2-2-|
--------------0-0-0-0-0-0-0-|

repeat for the rest of the song, basically that's the structure.
you really have to listen to the song to figure out the strum pattern, i'm sorry i was 
vague with the way i wrote it out, but even if i wrote it out perfect, you'd still have 
play along with the song to grasp it.
cheers!
Tap to rate this tab
# A B C D E F G H I J K L M N O P Q R S T U V W X Y Z