Song name
# A B C D E F G H I J K L M N O P Q R S T U V W X Y Z

Band Of Horses - Monsters tab

-------------------------------------------------------------------------------
			     Monsters - Band of Horses
-------------------------------------------------------------------------------
Tabbed by: Handt
Email: Handt@mailbox.sc.edu

NOTE: I chose to tab this high on lower strings to mimic the tinny sound of a banjo

It's easy to tell when parts switch, just listen to the song.


Tuning: Standard


Part 1

e|-------------------------|
B|-------------------------|
G|-7--7-9-11-9-7---7-------|
D|---------------9---------|
A|-------------------------|
E|-------------------------|


Part 2

e|-------------------------|
B|-8--------10-8-----------|
G|---11-9-7------11-9------|
D|-------------------------|
A|-------------------------|
E|-------------------------|


Part 3

e|-------------------------------------------------------------------|
B|-10p8-8-8-8/7-7-7-7/5-5-5 5/7-7/8-10p8-8-8-8/7-7-7-7/5-5-5 5/7-7/8-|
G|-------------------------------------------------------------------|
D|-------------------------------------------------------------------|
A|-------------------------------------------------------------------|
E|-------------------------------------------------------------------|


Ending to part 3

e|-----------------------------------------|
B|-10p8-8-8-8/7-7-7-7/5-5-5 5/3-3-3--------|
G|-----------------------------------------|
D|-----------------------------------------|
A|-----------------------------------------|
E|-----------------------------------------|


| /  slide up
| \  slide down
| h  hammer-on
| p  pull-off
| ~  vibrato
| +  harmonic
| x  Mute note
===============================================================================
Tap to rate this tab
# A B C D E F G H I J K L M N O P Q R S T U V W X Y Z