Song name
# A B C D E F G H I J K L M N O P Q R S T U V W X Y Z

Band Of Horses - The First Song tab

-----------------------------------------------------------------------------
			           THE FIRST SONG - BAND OF HORSES
-----------------------------------------------------------------------------
Tabbed by: Travis G.
Email: tg_435@hotmail.com

Tuning:Eb Ab Db Gb Bb Eb

If you don't want to tune to Eb, just move every chord/note on this tab half a step 
It's just (IMO) easier this way.

Main Riff
eb|-----0-3-0---------3-0--------0-3-0----0--------0---------------|
Bb|---3-------3--1-3-----------3--------3---1--3-----1-------------|
Gb|----------------------------------------------------------------|
Db|----------------------------------------------------------------|
Ab|----------------------------------------------------------------|
Eb|----------------------------------------------------------------|

Main Chords
         C9          G
eb|-------0----------0---------------------------------|
Bb|-------3----------3---------------------------------|
Gb|-------0----------0---------------------------------|
Db|-------2----------0---------------------------------|
Ab|-------3----------2---------------------------------|
Eb|-------0----------3---------------------------------|

During the Palm muted parts (Coming home...already gone/Wrapping up...presents I 
the chords are G and D.

Listen to the song for rhythms and orders and whatnot. Feel free to correct anything I 
wrong, I just really wanted a tab of this up.
Tap to rate this tab
# A B C D E F G H I J K L M N O P Q R S T U V W X Y Z