Song name
# A B C D E F G H I J K L M N O P Q R S T U V W X Y Z

Band Of Horses - Is There A Ghost tab

Song: Is There a Ghost
Artist: Band of Horses
Album: "Cease to Begin" [2007]

Tab by Devin Miller

Tuning: Standard EADGBe
**CAPO 1st Fret

****************************************************************************

   C#
e|----------------------------------|
B|---1-----1-----1-----1-----1------|
G|-----0-----0-----0-----0-----0----|
D|----------------------------------|
A|-3-----3-----3-----3-----3-----3/-|
E|----------------------------------|

   F#
e|----------------------------------|
B|---6-----6-----6-----6-----6------|
G|-----0-----0-----0-----0-----0----|
D|----------------------------------|
A|-8-----8-----8-----8-----8-----8\-|
E|----------------------------------|

LYRICS:
I could sleep, I could sleep
I could sleep, I could sleep

   G#
e|---------------------------------------|
B|----8------8------8------8------8------|
G|------0------0------0------0------0----|
D|---------------------------------------|
A|-10-----10-----10-----10-----10-----10-|
E|---------------------------------------|

   F#
e|---------------------------------|
B|---6-----6-----6-----6-----6-----|
G|-----0-----0-----0-----0-----0---|
D|---------------------------------|
A|-8-----8-----8-----8-----8-----8-|
E|---------------------------------|

LYRICS:
When I lived alone, is there a ghost in my house?

----

PRE-JAM VAMP (strum rapidly):

e|--------|
B|-0------|
G|-0------|
D|-x------|
A|-3------|
E|--------|

----

JAM

Instead of arpeggios, just turn up the distortion and strum:

   C#  F#  G#
e|-0---0---0------|
B|-1---6---8------|
G|-0---0---0------|
D|-x---x---x------|
A|-3---8---10-----|
E|----------------|

Outro Guitar RIff (remeber, there is still a capo on 1st):

e|---------------------------------|
B|---------------------------------|
G|-7-9-9-7-9-9-7-9-9-7-9-9-7-9-9-9-|
D|---------------------------------|
A|---------------------------------|
E|---------------------------------|



| /  slide up
| \  slide down
==========================================================================
Tap to rate this tab
# A B C D E F G H I J K L M N O P Q R S T U V W X Y Z