Song name
# A B C D E F G H I J K L M N O P Q R S T U V W X Y Z

Band Of Horses - The Funeral chords

Highlighted       Show chord diagrams
Hi everyone, this song is actually played out of Eb 
but I transposed it so that you can play it with open chords. 
I also shortened it into a nice little acoustic version. 
It sounds just as nice and if you have seen 
"My Life as Liz", this is how the song was played and sung, Enjoy ^_^

Intro & 1st Verse:

        F          C         G           Am         Am     
e|------8--------------------------------0----------0----------|
B|---10---10-------8-------------------------------------------|
G|-10------------9---9-------7---------5---5------5---5--------|
D|------------10-----------9---9-----7----------7--------------|
A|----------------------10-------------------------------------|
E|-------------------------------------------------------------|

I'm coming up only to hold you under
To know you is hard we wonder
To know you all wrong they were

Ooooh Ooooh
Ooooh Ooooh

Chords:(2nd Verse)

   F    C    G    Am
e|-1----0----3----0--------|
B|-1----1----3----1--------|
G|-2----0----4----2--------|
D|-3----2----5----2--------|
A|------3----5----0--------|
E|-----------3-------------|

It's really too late to call so we wait for 
Morning to wake you it's all we got 
To the outside the dead leaves they blow like
Before they died they had trees to hang their hope

Ooooh Ooooh
Ooooh Ooooh

Interlude:

   G    C    Am   Am
e|-3----0----0----0--------|
B|-3----1----1----1--------|
G|-4----0----2----2--------|
D|-5----2----2----2--------|
A|-5----3----0----0--------|
E|-3-----------------------|

Every occasion once more
It's called the funeral 
Every occasion one brilliant day funeral

Outro:

   F    C    G    Am
e|-1----0----3----0--------|
B|-1----1----3----1--------|
G|-2----0----4----2--------|
D|-3----2----5----2--------|
A|------3----5----0--------|
E|-----------3-------------|

Ooooh Ooooh
Ooooh Ooooh

One final note:

For the G-chord, I play it barred b/c it sounds fuller 
but feel free to use this variation as well:

e|-x------|
B|-3------|
G|-0------|
D|-0------|
A|-2------|
E|-3------|
Tap to rate this tab
# A B C D E F G H I J K L M N O P Q R S T U V W X Y Z