Guitaretab - guitar tabs
Song name
# A B C D E F G H I J K L M N O P Q R S T U V W X Y Z

Band Of Horses - Ends Not Near tab

Guitar 1
e--------------------------------------------------------|
B--------------------------------------------------------|
G-16-----16-------13----13----13-------------------------|
D----18-------18-----16----14-----14--------14-----------|
A------------------------------------12-16-----16--------|
E--------------------------------------------------------|
[ Tab from: http://www.guitaretab.com/b/band-of-horses/223092.html ]
Guitar 2
e--------------------------------------------------------|
B--------------------------------------------------------|
G-----------9-8h9p8----------9-8h9p8---------------------|
D--------------------11--7------------11--7--------------|
A--------------------------------------------------------|
E--------------------------------------------------------|

Chords (for chorus)
e-7-7-7-----2-2-------|
B-9-9-9--2--4-4-------|
G-9-9-9--2--4-4-------|
D-9-9-9--2--4-4-------|
A-7-7-7-----2-2-------|
E-x-x-x-----x-x-------| X 3

e-5-5-5-5--2-2--------|
B-5-5-5-5--4-4--2-----|
G-6-6-6-6--4-4--2-----|
D-7-7-7-7--4-4--2-----|
A-7-7-7-7--2-2--------|
E-5-5-5-5--x-x--------| X 2
Related for Ends Not Near tab
Ends Not Near chords by Band Of Horses