Band Of Horses - Evening Kitchen tab

Band of Horses
Evening Kitchen

capo on 5th fret, finger picked

Intro(x1)/Verse(x2)

e|--0-0-0-0-0-0-0-0-0-0-0-0-0-0-0-0-0-0-0-0-0-0-0-0-0-0-0-0-0-0-0-0-|
B|--1-1-1-1-1-1-1-1-0-0-0-0-0-0-0-0-1-1-1-1-1-1-1-1-0-0-0-0-0-0-0-0-|
G|----------0---------------0---------------0---------------0-------|
D|------2-------2-------2-------2-------2-------2-------2-------2---|
A|--3-------------------------------3-------------------------------|
E|------------------3-------------------------------3---------------|


  1. Drive out with the sun in your eyes, you wasted my time
  2. My God, don't you hold out your hand. I called off my plans

e|--0-0-0-0-0-0-0-0-0-0-0-0-0-0-0-0-0-0-0-0-0-0-0-0-0-0-0-0-0-0-0-0-0-0-0-0-0-0-0-0---|
B|--1-1-1-1-1-1-1-1-0-0-0-0-0-0-0-0-1-1-1-1-1-1-1-1-0-0-0-0-0-0-0-0-0-0-0-0-0-0-0-0---|
G|----------0---------------0---------------0---------------0(2h)-----------0-2h-(0)--|
D|------2-------2-------2-------2-------3-------3-------2-------0-------2-------0-----|
A|--3---------------------------------------------------------------------------------|
E|------------------0---------------1---------------3---------------3-----------------|

  1. It's true... it's true...
  2. I counted on you... on you...

Chorus (x2)

e|-----------0-----------0-----------0-----------0-----------0-----------0-----------0-----|
B|--1-----1-----1-----1-----0-----0-----1-----1-----1-----1-----1-----1-----1--------------|
G|-----0-----------0-----------0-----------0-----------0-----------0-----------0-----------|
D|--------3-----------3-----------2-----------3-----------3-----------3-----------3--------|
A|-----------------------------------------------------------------------------------------|
E|--1-----------1-----------0-----------1-----------1-----------1-----------1--------------|

  1. And if you're ever left with any doubt
  2. What you'll live with and what you'll do without

e|-----------0-----------0-----------0-----------0-----------0-----------0-----------0-----|
B|--1-----1-----1-----1-----0-----0-----1-----1-----0-----0-----1-----1-----1--------------|
G|-----0-----------0-----------0-----------0-----------0-----------0-----------0-----------|
D|--------3-----------3-----------2-----------3-----------2-----------3-----------3--------|
A|-----------------------------------------------------------------------------------------|
E|--1-----------1-----------0-----------1-----------0-----------1-----------1--------------|

  3. I'm only sorry that it took so long to figure out


Chorus Outro

e|------------------------------|
B|-----0--1--3--1--0------------|
G|--2-----------------2--0------|
D|------------------------------|
A|------------------------------|
E|------------------------------|

Outro

e|------------------------------|
B|---------0------1-------------|
G|--0--2h-----------------------|
D|----------------2-------------|
A|----------------3-------------|
E|------------------------------|

tab by Mark Kokcl
itsmemarke@sbcglobal.net
Tap to rate this tab
 
# A B C D E F G H I J K L M N O P Q R S T U V W X Y Z