Band Of Horses - St Augustine tab

tabbed by Jacob Kilborn

tabs relative to cappo (obviously)

cappo on 4th standard tuning

gotta give alota credit to matt byington aka pure canadian, he was really close. i 
have done it without his tab

others were pretty close. only missing one note.

---------------------------------------------|
-------------0-0-3-------------0-0-3---------|
---0-0-2----0---------0-0-2---0--------------|
--0--------2---------0-------2---------------|
-2--------2---------2-------2----------------|
3------------------3-------------------------|

------------------------------------------------|
------------------------------------------------|
---0-----0--------0-----0-----------------------|
--0-4---2--------0--4--2------------------------|
-2-----2---13---2-----2---13--------------------|
3--------------3--------------------------------|

repeat through whole song end with the G chord
Tap to rate this tab
 
# A B C D E F G H I J K L M N O P Q R S T U V W X Y Z