Song name
# A B C D E F G H I J K L M N O P Q R S T U V W X Y Z

Band Of Horses - St Augustine tab

SONG: St Augustine
GROUPE:Band Of Horses
ALBUM: Everything All The Time

Accordage 1/2 ton en dessous

INTRO ET COUPLETS

    B             Abm           E             Gb

eb|--------0---3---------0---3------------------------------|
Bb|-1---3--1------1---3--1------1---0------0--1---0------0--|
Gb|-0------0------2------2------2------2------0------2------|
Db|-2------2------2------2------3------3------0------0------|
Ab|-3-3----3-3----0-0----0-0----3------3------2------2------|
Eb|-----------------------------1-1----1-1----3-3----3-3----|


REFRAINS ET OUTRO

     E             Gb            B             E 

eb|-------------------------------------0---3---------------|
Bb|--1---0------0--1---0------0--1---3--1------1---0------0-|
Gb|--2------2------0------2------0------0------2------2-----|
Db|--3------3------0------0------2------2------3------3-----|
Ab|--3------3------2------2------3-3----3-3----3------3-----|
Eb|--1-1----1-1----3-3----3-3------------------1-1----1-1---|

     E             Gb            B             Abm        (X2,5 refr 1)
                                                          (X4,5 refr 2)
eb|-------------------------------------0---3---------0---3-|
Bb|--1---0------0--1---0------0--1---3--1------1---3--1-----| 
Gb|--2------2------0------2------0------0------2------2-----|
Db|--3------3------0------0------2------2------2------2-----|
Ab|--3------3------2------2------3-3----3-3----0-0----0-0---|
Eb|--1-1----1-1----3-3----3-3-------------------------------|


COUPLET 1
Silver scents of saint augustine
 fire in the ground
 between my better teeth
 we're dancing on the poison in their graves
 at the end of the night
 we'd all seen better days

REFRAIN 1
  E
i know you tried 
  Gb
i know you're cursed
  B                    E
i know your best was still your worst
     E              Gb              B        Abm
when hollywood was calling out your name
E          Gb              B        Abm         
Saint      Augustine
E          Gb 


COUPLET 2
if i stayed behind
 would you let your hair grow?
 i will forget
 the favors that you owe
 i'm dreaming of car wrecks and thunderstorms bright
 let's bury ourselves 
and go haunt someone tonight


REFRAIN 2 (outro)
  E
i know you tried 
  Gb
i know you're cursed
  B                    E
i know your best was still your worst
     E              Gb              B        Abm
when hollywood was calling out your name
E          Gb              B        Abm         
Saint      Augustine
E          Gb              B        Abm         
Saint      Augustine
E          Gb              B        Abm         
Saint      Augustine
E          Gb                  
Saint      Augustine
Tap to rate this tab
 
# A B C D E F G H I J K L M N O P Q R S T U V W X Y Z