Song name
# A B C D E F G H I J K L M N O P Q R S T U V W X Y Z

Band Of Horses - Ends Not Near tab

-------------------------------------------------------------------------------
			     ends not near / band of horses
-------------------------------------------------------------------------------
Tabbed by: adam_esk

Tuning: standard

e|----7-------7-----------------------------------------------------------------|
B|--------9-------9------9--------9-------9-------------------------------------|
G|-----------------11(h)-----11-------9------  9---------6----9----6------------|
D|-------------------------------------------------7----------------------------|
A|------------------------------------------------------------------------------|
E|------------------------------------------------------------------------------|

| h   hammer-on

************************************
Tap to rate this tab
# A B C D E F G H I J K L M N O P Q R S T U V W X Y Z