Song name
# A B C D E F G H I J K L M N O P Q R S T U V W X Y Z

Band Of Horses - No Ones Gonna Love You tab

Band: Band of Horses
Album: Cease to Begin
Song: No One's Gonna Love You
Tabbed by Doni Smith

Tuning: Standard ( E A D G B e )
No capo

This tab is my interpretation for the lead section of the song.
There are effects when played but you can still create the same sound without
This may not be 100% accurate but its simple and still sounds good.


[Intro]
e ---------------------------------------------------------------------------------|
B ----6-6-6-6-6-6-6-6-4-4-4-4-4-4-4/9-9-9-9-9-9-9-9-9-9-9-9-9-9-9-9----------------|
G ---------------------------------------------------------------------------------|
D ---------------------------------------------------------------------------------| 
A ---------------------------------------------------------------------------------|
E ---------------------------------------------------------------------------------|

e ---------------------------------------------------------------------------------|
B ----6-6-6-6-6-6-6-6-4-4-4-4-4-4-4/9-9-9-9-9-9-9-9-9-9-9-9h11-9-9-----------------|
G ---------------------------------------------------------------------------------|
D ---------------------------------------------------------------------------------| 
A ---------------------------------------------------------------------------------|
E ---------------------------------------------------------------------------------|

e ---------------------------------------------------------------------------------|
B ----6-6-6-6-6-6-6-6-4-4-4-4-4-4-4/9-9-9-9-9-9-9-9-9-9-9-9-9-9-9-9----------------|
G ---------------------------------------------------------------------------------|
D ---------------------------------------------------------------------------------| 
A ---------------------------------------------------------------------------------|
E ---------------------------------------------------------------------------------|



[Verse 1]
e ---------------------------------------------------------------------------------|
B ----6-6-6-6-6-6-6-6-4-4-4-4-4-4-4/9-9-9-9-9-9-9-9-9-9-9-9h11-9-9-----------------|
G ---------------------------------------------------------------------------------|
D ---------------------------------------------------------------------------------| 
A ---------------------------------------------------------------------------------|
E ---------------------------------------------------------------------------------|
"     Its's looking like a limb torn off,                 or all-

e ---------------------------------------------------------------------------------|
B ----6-6-6-6-6-6-6-6-4-4-4-4-4-4-4/9-9-9-9-9-9-9-9-9-9-9-9-9-9-9-9----------------|
G ---------------------------------------------------------------------------------|
D ---------------------------------------------------------------------------------| 
A ---------------------------------------------------------------------------------|
E ---------------------------------------------------------------------------------|
"    -together just..             taken apart 

e ---------------------------------------------------------------------------------|
B ----6-6-6-6-6-6-6-6-4-4-4-4-4-4-4/9-9-9-9-9-9-9-9-9-9-9-9h11-9-9-----------------|
G ---------------------------------------------------------------------------------|
D ---------------------------------------------------------------------------------| 
A ---------------------------------------------------------------------------------|
E ---------------------------------------------------------------------------------|
"     We're reeling through an endless fall,             we are-

e ---------------------------------------------------------------------------------|
B ----6-6-6-6-6-6-6-6-4-4-4-4-4-4-4/9-9-9-9-9-9-9-9-9-9-9-9-9-9-9-9----------------|
G ---------------------------------------------------------------------------------|
D ---------------------------------------------------------------------------------| 
A ---------------------------------------------------------------------------------|
E ---------------------------------------------------------------------------------|
"     -the ever-living ghost of.. what once was


[Pre-Chorus]                       
e ---------------------------------------------------------------------------------|
B ----9-9/2-2-2-2-2-2-2-2-2-2-2-2-2-2-2-2/7-7-7-7-6-6-6-6-1-1-1-1-1-1-1-1----------|
G ---------------------------------------------------------------------------------|
D ---------------------------------------------------------------------------------| 
A ---------------------------------------------------------------------------------|
E ---------------------------------------------------------------------------------|
"     but no one..                           Is ever going to love you more that I do

e ---------------------------------------------------------------------------------|
B ----7-7-7-7-6-6-6-6-1-1-1-1-1-1-1-1----------------------------------------------|
G ---------------------------------------------------------------------------------|
D ---------------------------------------------------------------------------------| 
A ---------------------------------------------------------------------------------|
E ---------------------------------------------------------------------------------|
"     No one's gonna love you more than I do


[Verse 2]
e ---------------------------------------------------------------------------------|
B ----6-6-6-6-6-6-6-6-4-4-4-4-4-4-4/9-9-9-9-9-9-9-9-9-9-9-9h11-9-9-----------------|
G ---------------------------------------------------------------------------------|
D ---------------------------------------------------------------------------------| 
A ---------------------------------------------------------------------------------|
E ---------------------------------------------------------------------------------|
"     And anything to make you smile,                    it is-

e ---------------------------------------------------------------------------------|
B ----6-6-6-6-6-6-6-6-4-4-4-4-4-4-4/9-9-9-9-9-9-9-9-9-9-9-9-9-9-9-9----------------|
G ---------------------------------------------------------------------------------|
D ---------------------------------------------------------------------------------| 
A ---------------------------------------------------------------------------------|
E ---------------------------------------------------------------------------------|
"     a better side..              of what you admire

e ---------------------------------------------------------------------------------|
B ----6-6-6-6-6-6-6-6-4-4-4-4-4-4-4/9-9-9-9-9-9-9-9-9-9-9-9h11-9-9-----------------|
G ---------------------------------------------------------------------------------|
D ---------------------------------------------------------------------------------| 
A ---------------------------------------------------------------------------------|
E ---------------------------------------------------------------------------------|
"     But they should never take so long..                Just to-            

e ---------------------------------------------------------------------------------|
B ----6-6-6-6-6-6-6-6-4-4-4-4-4-4-4/9-9-9-9-9-9-9-9-9-9-9-9-9-9-9-9----------------|
G ---------------------------------------------------------------------------------|
D ---------------------------------------------------------------------------------| 
A ---------------------------------------------------------------------------------|
E ---------------------------------------------------------------------------------|
"    -be over them..               back to another one


[Pre-Chorus]
e ---------------------------------------------------------------------------------|
B ----9-9/2-2-2-2-2-2-2-2-2-2-2-2-2-2-2-2/7-7-7-7-6-6-6-6-1-1-1-1-1-1-1-1----------|
G ---------------------------------------------------------------------------------|
D ---------------------------------------------------------------------------------| 
A ---------------------------------------------------------------------------------|
E ---------------------------------------------------------------------------------|
"     but no one..                           Is ever going to love you more that I do

e ---------------------------------------------------------------------------------|
B ----7-7-7-7-6-6-6-6-1-1-1-1-1-1-1-1----------------------------------------------|
G ---------------------------------------------------------------------------------|
D ---------------------------------------------------------------------------------| 
A ---------------------------------------------------------------------------------|
E ---------------------------------------------------------------------------------|
"     No one's gonna love you more than I do


[Chorus]
e ---------------------------------------------------------------------------------|
B ----6------------------------11-----13-------------------------------------------|
G ---------------------------------------------------------------------------------|
D ---------------------------------------------------------------------------------| 
A ---------------------------------------------------------------------------------|
E ---------------------------------------------------------------------------------|
"     But someone, They coulda warned you..

e ---------------------------------------------------------------------------------|
B -------------------------------------------------9-------------------------------|
G ----6-----------------6---------8------10----------------------------------------|
D ---------------------------------------------------------------------------------| 
A ---------------------------------------------------------------------------------|
E ---------------------------------------------------------------------------------|
"     When things start splitting at the seams to now

e ---------------------------------------------------------------------------------|
B ---------------------------------------------------------------------------------|
G ----9----------------6--------4--------------------------------------------------|
D ---------------------------------------------------------------------------------| 
A ---------------------------------------------------------------------------------|
E ---------------------------------------------------------------------------------|
"     The whole things tumbling down

e -------------------------------------------------8------6-----4---------4-----------------------|
B -------------------------------------------9---9---9------7-6---6---6/7---7-4-------------------|
G -----------6-----6---------8------10---------8-------10-----------6-----------6-----------------|
D ------------------------------------------------------------------------------------------------| 
A ------------------------------------------------------------------------------------------------|
E ------------------------------------------------------------------------------------------------|
"     Things start splitting at the seams to now..


[Post-Chorus]
e ---------------------------------------------------------------------------------|
B -------------------------------------------------9-------------------------------|
G ----6-----------------6---------8------10----------------------------------------|
D ---------------------------------------------------------------------------------| 
A ---------------------------------------------------------------------------------|
E ---------------------------------------------------------------------------------|
"     When things start splitting at the seams to now

e ---------------------------------------------------------------------------------|
B ---------------------------------------------------------------------------------|
G ----9----------------6--------4--------------------------------------------------|
D ---------------------------------------------------------------------------------| 
A ---------------------------------------------------------------------------------|
E ---------------------------------------------------------------------------------|
"     The whole things tumbling down-

e -------------------------------------------8------6-----4---------4-----------------------------|
B -------------------------------------9---9---9------7-6---6---6/7---7-4-------------------------|
G -----6-----6---------8------10---------8-------10-----------6-----------6-----------------------|
D ------------------------------------------------------------------------------------------------| 
A ------------------------------------------------------------------------------------------------|
E ------------------------------------------------------------------------------------------------|
"     -hard


* The rest of the song contains the same tablature that is given to play the rest of the song.
This is how I set up the structure of the song so use this as a guide of your own: 

SONG STRUCTURE
- [Intro]
- [Verse 1]
- [Pre-Chorus]
- [Verse 2]
- [Pre-Chorus]
- [Chorus]
- [Post-Chorus]
- [Verse 3]
- [Pre-Chorus]
- [Chorus]
- [Post-Chorus]

Hope this helps! 
Remember, this how I would play it.. so use it and play around with it

Rock on Guys :)
Tap to rate this tab
# A B C D E F G H I J K L M N O P Q R S T U V W X Y Z