Song name
# A B C D E F G H I J K L M N O P Q R S T U V W X Y Z

Band Of Horses - I Go To The Barn Because I Like The tab

-----------------------------------------------------------------------------
            I go to the barn because I like the - Band of horses
-----------------------------------------------------------------------------
Tabbed by: thijs.hekman
E-mail:

Tuning: Standard

This is the picked intro/verse bit, I'll probably add the rest at a later time. I hope 
the picking pattern is clear. It's a 3/4 measure, with a triplet feel. Therefore, I have 
divided each beat into thirds. Any comments/suggestions are more than welcome. Enjoy.


    D                          A

e|--2--------|-----2--|-----0--0--------|-----0--|--------|
B|--|-----3--|--------3--------|-----2--|--------|-----0--|
G|--|--------0h2------|--------|--------|--------2--------|
D|--0--------|--------|--------|--------0h2------|--------|
A|--|--------|--------|--------0--------|--------|--------|
E|--|--------|--------|--------|--------|--------|--------|


    G                          A

e|--3--------|-----3--|--------0--------|-----0--|--------|
B|--0-----0--|--------|-----0--|-----2--|--------|-----0--|
G|--|--------|--------|--------|--------|--------2--------|
D|--|--------|--------0--------|--------0h2------|--------|
A|--|--------0h2------|--------0--------|--------|--------|
E|--3--------|--------|--------|--------|--------|--------|
Tap to rate this tab
 
# A B C D E F G H I J K L M N O P Q R S T U V W X Y Z