Song name
# A B C D E F G H I J K L M N O P Q R S T U V W X Y Z

Band Of Horses - Cigarettes Wedding Bands tab

  ----------------------------------------------------------------------
                     Cigarettes, Wedding Bands
----------------------------------------------------------------------------
Tabbed by: RockMel

Tuning: Standard (EADGBe)

Beautiful guitar song!
Unless arpeggiations are shown, all chords can be strummed like this: D DUD

(Note: Other forms of F are acceptable if barre chords have not been mastered yet. )


Intro

     Am   Em    Am    Em    Am    Em    F    G
e|---0----0------0-----0-----0-----0----1----3-----------------|
B|---1----0------1-----0-----1-----0----1----0-----------------|
G|---2----0------2-----0-----2-----0----2----0-----------------|
D|---2----2------2-----2-----2-----2----3----0-----------------|
A|---0----2------0-----2-----0-----2----3----2-----------------|
E|--------0------------0-----------0----1----3-----------------|


Verses

      Am     Em     Dm      Dm
e|-----8------3------1-------1---------------------------|
B|----10------5------3-------3---------------------------|
G|-----9------4------2-------2---------------------------| (Repeat as needed)
D|-------------------------------------------------------|
A|-------------------------------------------------------|
E|-------------------------------------------------------|


Chorus (pt.1)

     C    Em    Dm    Dm
e|----0----3-----1-----1-----------------------------------|
B|----1----5-----3-----3-----------------------------------|
G|----0----4-----2-----2-----------------------------------|   (x2)
D|---------------------------------------------------------|
A|---------------------------------------------------------|
E|---------------------------------------------------------|

Chorus (pt.2)

    G     G      Dm     Dm
e|--7-----7-------5------5-------------------------|
B|--8-----8-------6------6-------------------------|
G|--7-----7-------7------7-------------------------|  (Then back to pt.1)
D|-------------------------------------------------|
A|-------------------------------------------------|
E|-------------------------------------------------|


Bridge (pt.1)

     Am              Em                   F            G
e|-----------------------3------------------5------------7----------|
B|-----1-------------------5-------------------6------------8-------|
G|--------2----(x4)----4-----4--(x2)------5-------5----7------7-----|
D|---2------2-------------------------------------------------------|
A|------------------------------------------------------------------|
E|------------------------------------------------------------------|

Bridge (pt.2)
    Dm
e|---1---------------------------------|
B|------3------------------------------|
G|---------2---(x4)--------------------|
D|-----------0-------------------------|
A|-------------------------------------|
E|-------------------------------------|

Song Order:
Intro
Verse 1
Chorus (pt 1)
Verse 2
Chorus (pt 1&2)
Intro
Verse 3
Chorus (pt 1&2)
Bridge (pt.1 X2, pt.2, pt.1, pt.2)
Chorus (pt. 1 repeated 2x)
End on the Dm, but just strum it once and let it ring out.
Tap to rate this tab
# A B C D E F G H I J K L M N O P Q R S T U V W X Y Z