Song name
# A B C D E F G H I J K L M N O P Q R S T U V W X Y Z

Band Of Skulls - Fires tab

-------------------------------------------------------------------------------
			     Fires - Band of Skulls
-------------------------------------------------------------------------------
Tabbed by:Robby farrand
Email:farrandr@ymail.com

Tuning: Standard
h=Hammer-on

e|---------| muted
B|---------| Intro
G|---------| X How ever many 
D|--7------|
A|--7------|
E|--5------|


e|-----------------|
B|-----------------|
G|-----------------| x4
D|--7-7-7-7--7-6---|
A|--7-7-7-7--------|
E|--5-5-5-5--------|


e|---------------------------------------------- |-----|
B|---------------------------------------------- |-----|
G|---------------------------------------------- |-----| 
D|-7----9---12-11-9-6----9-7-2h4-2----12-11-9-6- |-7---|X 12
A|-7----9--------------------------------------- |-7---|
E|-5----7--------------------------------------- |-5---|

e|-------------------------------------------- |-----|
B|-------------------------------------------- |-----|
G|-------------------------------------------- |-7---| 
D|----9---12-11-9-6----9-7-2h4-2----12-11-9-6- |-7---|X 12
A|----9--------------------------------------- |-5---|
E|----7--------------------------------------- |-----|


e|-----------------| |-0-----|
B|-----------------| |-0-----|Fill
G|-----------------| |-0-----|x 4
D|--7-7-7-7--7-6---| |-0-----|
A|--7-7-7-7--------| |-0-----|
E|--5-5-5-5--------| |-0-----|

Email me if any problems
Tap to rate this tab
# A B C D E F G H I J K L M N O P Q R S T U V W X Y Z