Band Of Skulls - Fires tab

My first UG tab. Enjoy!
"Pre-intro" (palm muted, sans the low E at the end.)
E|-------------------------------|
B|-------------------------------|
G|-------------------------------|
D|-------------------------------|
A|-------------------------------|
E|5555555555555555555555555555550|

Intro
E|------------------------------- |
B|-------------------------------O|
G|------------------------------- |
D|----7--6-----------7--6-------- |
A|----------------------------7/-O|
E|5--------------05-------------- |

Verses
E|5---------------|7-----------------|0---------------|5----------------|
B|5---------------|7-----------------|0---------------|5----------------|
D|6---------------|7---12---11---9---|1---------------|6----------------|
G|7---------------|9-----------------|2---------------|7---9--7---------|
A|7---------------|9-----------------|2---------------|7----------0h7---|
E|5---------------|7-----------------|0---------------|5----------------|

E|5---------------|7-----------------|0---------------|55555--5-5-55555|
B|5---------------|7-----------------|0---------------|55555--5-5-55555|
D|6---------------|7---12---11---9---|1---------------|66666--6-6-66666|
G|7---------------|9-----------------|2---------------|77777--7-7-77777|
A|7---------------|9-----------------|2---------------|77777--7-7-77777|
E|5---------------|7-----------------|0---------------|55555--5-5-55555|

E|5---------------|7-----------------|0---------------|5-----------------|
B|5---------------|7-----------------|0---------------|5-----------------|
D|6---------------|7---12---11---9---|1---------------|6-----------------|
G|7---------------|9-----------------|2---------------|7---9--7-9b9b9b-97|
A|7---------------|9-----------------|2---------------|7-----------------|
E|5---------------|7-----------------|0---------------|5-----------------|

E|5---------------|7-----------------|0---------------|55555--5-5-55555|
B|5---------------|7-----------------|0---------------|77777--7-7-77777|
D|6---------------|7---12---11---9---|1---------------|77777--7-7-77777|
G|7---------------|9-----------------|2---------------|77777--7-7-77777|
A|7---------------|9-----------------|2---------------|55555--5-5-55555|
E|5---------------|7-----------------|0---------------|----------------|

Pre-chorus" (NOTE:This may be an octave higher, but it works either way. I'm tabbing 
memory, I transcribed this orginally 6 months before tabbing it.)


E|----------------|
B|----------------|
G|----------------|
D|----------------|
A|----------------|
E|5---5--4--------|


E|5---------------|5---------------|5---------------|5---------------|
B|5---------------|7---------------|7---------------|5---------------|
G|6---------------|7---------------|7---------------|6---------------|
D|7---------------|7---------------|7---------------|7---------------|  X2
A|7---------------|5---------------|5---------------|7---------------|
E|5---------------|----------------|----------------|5---------------|

FORM:
Pre-intro
Intro
Verse
Pre chorus
Chorus
Verse
Chorus--out

Thanks for reading!

Chorus
Tap to rate this tab
 
# A B C D E F G H I J K L M N O P Q R S T U V W X Y Z