Song name
# A B C D E F G H I J K L M N O P Q R S T U V W X Y Z

Band Of Skulls - Friends tab

e|--------------------------------------------------------------------------|
B|--------------------------------------------------------------------------|
G|--------------------------------------------------------------------------|
D|9-9-9-9-9-9-9-9-------9-9-9-9-9-9-9-9-------------------------------------|
A|9-9-9-9-9-9-9-9-------9-9-9-9-9-9-9-9-------------------------------------|
E|7-7-7-7-7-7-7-7-------7-7-7-7-7-7-7-7-------------------------------------|

strum all eight times

e|--------------------------------------------------------------------------|
B|--------------------------------------------------------------------------|
G|--------------------------------------------------------------------------|
D|6-6-6-6-6-6-6-6--------6-6-6-6-6-6-6-6-8-8-8-8-8-8-8-8--------------------|
A|6-6-6-6-6-6-6-6--------6-6-6-6-6-6-6-6-8-8-8-8-8-8-8-8--------------------|
E|4-4-4-4-4-4-4-4--------4-4-4-4-4-4-4-4-6-6-6-6-6-6-6-6--------------------|
starts over again.
                        I need love....
e|--------------------------------------------------------------------------|
B|--------------------------------------------------------------------------|
G|----------------9-9-9-9-9-9-9-9-------------------------------------------|
D|9-9-9-9-9-9-9-9-9-9-9-9-9-9-9-9-8-8-8-8-8-8-8-8---------------------------|
A|9-9-9-9-9-9-9-9-7-7-7-7-7-7-7-7-8-8-8-8-8-8-8-8---------------------------|
E|7-7-7-7-7-7-7-7-----------------6-6-6-6-6-6-6-6---------------------------|
im not sure how much to do it so u need to listen to the song.this part comes up to 
times in the song even at the the end.
Tap to rate this tab
 
# A B C D E F G H I J K L M N O P Q R S T U V W X Y Z