Song name
# A B C D E F G H I J K L M N O P Q R S T U V W X Y Z

Band Of Skulls - Patterns tab

let me know if you find anything wrong with it!

Drop D

Intro

-----------2-0-----------2-0-----------2-0------------------|
------------------------------------------------------------|
------------------------------------------------------------|  x2
2-2-2-2-2-----2-2-2-2-2-----2-2-2-2-2-----2-2-2-2-2--4-5-7--|
2-2-2-2-2-----2-2-2-2-2-----2-2-2-2-2-----2-2-2-2-2--4-5-7--|
2-2-2-2-2-----2-2-2-2-2-----2-2-2-2-2-----2-2-2-2-2--4-5-7--|

verse

----------------------------------------------------------------|
----------------------------------------------------------------|
9-9-9-9-9-9-9-9-9-9-9-9-9-9-9-9-5-5-5-5-5-5-5-5-4-4-4-4-4-4-4-4-|
9-9-9-9-9-9-9-9-9-9-9-9-9-9-9-9-5-5-5-5-5-5-5-5-4-4-4-4-4-4-4-4-| x3
7-7-7-7-7-7-7-7-7-7-7-7-7-7-7-7-3-3-3-3-3-3-3-3-2-2-2-2-2-2-2-2-|
----------------------------------------------------------------|
* * * * * * * * * * * * * * * * * * * * * * * * * * * * * * * *

(below bass line)
---------------------------------------------------------------------|
---------------------------------------------------------------------|
--9---9---11---12----9---9---11---12---5---5---7---9---4---4---5---7-|
---------------------------------------------------------------------|
7---7---9----10---7---7---9---10----3---3---5---7---2---2---3---5----|
---------------------------------------------------------------------|

chorus

----------2-0----------2-0----------2-0------------------|
---------------------------------------------------------|
--------------------------2-2-2-2-2----2-2-2-2-2---------|  x2
2-2-2-2-2----2-2-2-2-2----2-2-2-2-2----2-2-2-2-2-4-5-7---|
2-2-2-2-2----2-2-2-2-2----0-0-0-0-0----0-0-0-0-0-4-5-7---|
2-2-2-2-2----2-2-2-2-2---------------------------4-5-7---|

-----------------------------------------------------------------------|
-----------------------------------------------------------------------|
--9---9---11---12----9---9---11---12---5---5---7---9---4---4---5---7---|
-----------------------------------------------------------------------|  x2
7---7---9----10---7---7---9---10----3---3---5---7---2---2---3---5------|
-----------------------------------------------------------------------|

verse
(bass first line)
-x~
-x~
-9~   (let ring)
-x~
-7~
--

after 666
----------------------------------------------------------------|
----------------------------------------------------------------|
9-9-9-9-9-9-9-9-9-9-9-9-9-9-9-9-5-5-5-5-5-5-5-5-4-4-4-4-4-4-4-4-|
9-9-9-9-9-9-9-9-9-9-9-9-9-9-9-9-5-5-5-5-5-5-5-5-4-4-4-4-4-4-4-4-|
7-7-7-7-7-7-7-7-7-7-7-7-7-7-7-7-3-3-3-3-3-3-3-3-2-2-2-2-2-2-2-2-|
----------------------------------------------------------------|
* * * * * * * * * * * * * * * * * * * * * * * * * * * * * * * *

---------------------------------------------------------------------|
---------------------------------------------------------------------|
--9---9---11---12----9---9---11---12---5---5---7---9---4---4---5---7-|
---------------------------------------------------------------------|
7---7---9----10---7---7---9---10----3---3---5---7---2---2---3---5----|
---------------------------------------------------------------------|

chorus

----------2-0----------2-0----------2-0------------------|
---------------------------------------------------------|
--------------------------2-2-2-2-2----2-2-2-2-2---------|  x2
2-2-2-2-2----2-2-2-2-2----2-2-2-2-2----2-2-2-2-2-4-5-7---|
2-2-2-2-2----2-2-2-2-2----0-0-0-0-0----0-0-0-0-0-4-5-7---|
2-2-2-2-2----2-2-2-2-2---------------------------4-5-7---|


bridge

let ring

----------------------------|
----------------------------|
-9~------5~------9~------5~-|
-9~------5~------9~------5~-|
-7~------3~------7~------3~-|
----------------------------|

then after long bass riff

-----------------------------------------|
-----------------------------------------|
-7-7-------7-7-------5-5-------5-5-------|
-7-7-5-4-2-7-7-5-4-2-5-5-5-4-2-5-5-5-4-2-|
-5-5-5-4-2-5-5-5-4-2-3-3-5-4-2-3-3-5-4-2-|
-----5-4-2-----5-4-2-----5-4-2-----5-4-2-|

chorus

----------2-0----------2-0----------2-0------------------|
---------------------------------------------------------|
--------------------------2-2-2-2-2----2-2-2-2-2---------|  x2
2-2-2-2-2----2-2-2-2-2----2-2-2-2-2----2-2-2-2-2-4-5-7---|
2-2-2-2-2----2-2-2-2-2----0-0-0-0-0----0-0-0-0-0-4-5-7---|
2-2-2-2-2----2-2-2-2-2---------------------------4-5-7---|
Tap to rate this tab
 
# A B C D E F G H I J K L M N O P Q R S T U V W X Y Z