Song name
# A B C D E F G H I J K L M N O P Q R S T U V W X Y Z

Band Of Skulls - The Devil Takes Care Of His Own tab

      pm            pm
------------------------------------------------|   repeat untill
------------------------------------------------|
----------------2-2-----------2-2---------------|
-2-2------------2-2-----------2-2-----------2-2-|
-2-2--0-0-2h3-0-0-0-0-0-2h3-0-0-0-0-0-2h3-0-2-2-|
-0-0--0-0-----------------------------------0-0-|


-----------------|
-----------------|
-----------------|
-2-2-2-2-2-2-2-2-|
-2-2-2-2-2-2-2-2-|
-0-0-0-0-0-0-0-0-|

Didn't you read it in the de tail?
-------------------------------------------|
--------------------------------------3-3r-|
----------------------------------2-2-2-2r-|
--------------------------12-9----2-2-0-0r-|
--------------------------10-7----0-0------|
-------------------------------------------|

h = hammer on
r = let ring
pm= palm mute
Tap to rate this tab
# A B C D E F G H I J K L M N O P Q R S T U V W X Y Z