Song name
# A B C D E F G H I J K L M N O P Q R S T U V W X Y Z

Band Of Skulls - Lies tab

-------------------------------------------------------------------------------
                             Lies - Band of Skulls
-------------------------------------------------------------------------------
Tabbed by: oncenfutureidio
Email:

Tuning: EADGBe

Intro/verse
e|---------------------------------------------------------------------------|
B|---------------------------------------------------------------------------|
G|---------------------------------------------------------------------------|
D|--------------10-------------10-------------10--------------10-------------|
A|-----10----12------10----12-------10----12--------10----12-----------------|
E|--12----12-------12---12--------12---12---------12---12--------------------|

e|-----------------|--------------|--------------------------------------------|
B|-----------------|--------------|--------------------------------------------|
G|-----------------|--------------|--------------------------------------------|   x2
D|--------------10-|------------10|------------10-------------------10---------|
A|-----10----12----|---10----12---|---10----12----12-10----10----12----12-10---|
E|--12----12-------|-12---12------|-12---12--------------12----12--------------|
  Palm mute twice                    

Chorus
e|---------------------------------------------------------------------------|
B|---------------------------------------------------------------------------|
G|---------------------------------------------------------------------------|
D|---------------------------------------------------------------------------| 
A|---------------------------------------------------------------------------|
E|-12/0--8h9p8/0--7h8p7/0--5h6p5/0--12/0--8h9p8/0--7h8p7/0--5h6p5------------|
   
If you don't want to do the hammer-ons and pull-offs just put vibrato on the 8, 7 and 5 

Repeat verse
Do the change at the end twice NOT 4 times like the first verse

Repeat chorus twice

e|-----------------|--------------|--------------------------------------------|
B|-----------------|--------------|--------------------------------------------|
G|-----------------|--------------|--------------------------------------------|   x2 
D|--------------10-|------------10|------------10-------------------10---------|
A|-----10----12----|---10----12---|---10----12----12-10----10----12----12-10---|
E|--12----12-------|-12---12------|-12---12--------------12----12--------------|
                                            palm mute first 2 times

Solo
Guitar 1
e|------------------------------------------------------------------------------|
B|------------------------------------------------------------------------------|
G|-14-13-14-13-14-13---14-13-14-13-14-13---14-13-14-13-14-13---14-13-14-13-14-13|
D|------------------------------------------------------------------------------|
A|------------------------------------------------------------------------------|
E|------------------------------------------------------------------------------|

e|---------------------------------------------------------------------------------|
B|---------------------------------------------------------------------------------|
G|-16-14-16-14-16-14--16-14-16-14-16-14--16-14-16-14-16-14--16-14-16-14-16-14------|
D|---------------------------------------------------------------------------------|
A|---------------------------------------------------------------------------------|
E|----------------------------------------------------------------------------12/0-|


Guitar 2
e|----------------------------------------------------------------------------|
B|----------------------------------------------------------------------------|
G|----------------------------------------------------------------------------|
D|------------5-------------5-------------5-------------5-------------10------|
A|----5-7-5-7------5-7-5-7-------5-7-5-7-------5-7-5-7-------10-11-12----12-10|
E|-0-------------0-------------0-------------0-------------12-----------------|

e|----------------------------------------------------------------------------|
B|----------------------------------------------------------------------------|
G|----------------------------------------------------------------------------|
D|-------------10---------------------10--------------------10----------------|
A|----10-11-12----12-10-----10-11-12----12-10-----10-11-12----12-10-----------|
E|-12---------------------12--------------------12--------------------12/0----|


************************************

| /   slide up
| \   slide down
| h   hammer-on
| p   pull-off
| ~   vibrato
| +   harmonic
| x   Mute note
| b   Bend
| pb  Pre-bend
| br  Bend release
| pbr Pre-bend release
| brb Bend release bend

************************************
Tap to rate this tab
 
# A B C D E F G H I J K L M N O P Q R S T U V W X Y Z