Song name
# A B C D E F G H I J K L M N O P Q R S T U V W X Y Z

Band Of Skulls - The Devil Takes Care Of His Own tab

-------------------------------------------------------------------------------
                             Devil Takes Care Of His Own - Band Of Skulls
-------------------------------------------------------------------------------
Tabbed by: StephenM1992
Email: Stephen.j.munro@hotmail.co.uk

Tuning:Standard

Intro/Verse  [Riff 1]

e|0-0---------------0-0---------------0-0---------------0-0-----------|
B|0-0---------------2-2---------------2-2---------------0-0-----------|
G|1-1---------------2-2---------------2-2---------------1-1-----------|
D|2-2---------------2-2---------------2-2---------------2-2-----------|
A|2-2-------0-2-----0-0-------0-2-----0-0-------0-2-----2-2-----------|
E|0-0---0-3-----3---0-0---0-3-----3---0-0---0-3-----3---0-0-----------|

^^ Try not to hit the bottom strings as much ^^


Chorus [Riff 2]

e|-----------0--3--2--0-----------------------------------------------------|
B|-----------0--3--3--2-----------------------------------------------------|
G|12--9------1--0--2--2-----------------------------------------------------|
D|12--9------2--0--0--2-----------------------------------------------------|
A|10--7------2--2--0--0-----------------------------------------------------|
E|-----------0--3--x--x-----------------------------------------------------|

[Riff 3]
     PM           PM         PM            PM        PM
e|----------0-0---------0-0-------0-0---------------------------------------|
B|----------3-3---------2-2-------1-1---------------------------------------|
G|----------0-0---------0-0-------0-0---------------------------------------|
D|--2-2-2-2-----2-2-2-2-----2-2-2--------2-2-2-2---2-2-2-2------------------|
A|--2-2-2-2-----2-2-2-2-----2-2-2--------2-2-2-2---2-2-2-2------------------|
E|--0-0-0-0-----0-0-0-0-----0-0-0--------0-0-0-0---0-0-0-0------------------|


These are the three main riffs you need to be able to play the song. Listen to the song 
to get a feel of the rhythm and when to play which parts.

This is my first tab so go easy ha. Sounds pretty accurate, not a 100% though. Let me 
know what you think. Thanks (:

Great song by a great band, would really suggest listening to their album. Thanks.






************************************
| PM  palm mute
| /   slide up
| \   slide down
| h   hammer-on
| p   pull-off
| ~   vibrato
| +   harmonic
| x   Mute note
| b   Bend
| pb  Pre-bend
| br  Bend release
| pbr Pre-bend release
| brb Bend release bend

************************************
Tap to rate this tab
# A B C D E F G H I J K L M N O P Q R S T U V W X Y Z