Song name
# A B C D E F G H I J K L M N O P Q R S T U V W X Y Z

Band Of Skulls - Hometowns tab

-------------------------------------------------------------------------------
                             Hometowns - Band Of Skulls
-------------------------------------------------------------------------------
Tabbed by: Ralius18
E-mail: Brayds97@gmail.com

Tuning: Standard

INTRO / VERSE

e|------------------------------------------------------------------------------|
B|------------------------------------------------------------------------------|
G|----11------11-----11-----9-----9------9------4-----4-----------7------7------|
D|-------0------0-------------0-----0-------------0-----0-----------0------0----|
A|--12-----12-----12-----11-----11-----11-----5-----5-----5-----9-----9------9--|
E|------------------------------------------------------------------------------|

CHORUS THING

e|----2-----2-----2------2-----2-----2-----|
B|------3-----3------------3-----3---------|
G|--------2-----2------------2-----2-------|
D|-----------------------------------------|
A|--2------------------0-------------------|
E|-----------------------------------------|


Working on the rest at the moment :)
Tap to rate this tab
# A B C D E F G H I J K L M N O P Q R S T U V W X Y Z