Song name
# A B C D E F G H I J K L M N O P Q R S T U V W X Y Z

Band Of Skulls - Hollywood Bowl tab

Artiist: Band of Skulls
Album: Baby Darling Doll Face Honey
so you can play this song with these chords A,G,C,B  but if you're not interested in 
chords then heres the tab for this great riff
-------------------------------------------------------------------------------

e------------------x---------------------------|    (Repeat this riff)
B------------------x---------------------------|
G------------------x--5-5-5-5-5-5-4-4-4-4-4----|
D------------------x--3-3-3-3-3-3-2-2-2-2-2----|
A-7-7-7-7-7--5--7--x---------------------------|
E-5-5-5-5-5--3--5--x---------------------------|

e------------------x---------------------------|
B------------------x---------------------------|
G------------------x--5-5-5-5-5-5-4-4-4-4-4----|
D------------------x--3-3-3-3-3-3-2-2-2-2-2----|
A-7-7-7-7-7--5--7--x---------------------------|
E-5-5-5-5-5--3--5--x---------------------------|
Tap to rate this tab
# A B C D E F G H I J K L M N O P Q R S T U V W X Y Z