Song name
# A B C D E F G H I J K L M N O P Q R S T U V W X Y Z

Band Of Skulls - I Guess I Know You Fairly Well tab

-------------------------------------------------------------------------------
			     SONG NAME - Band Name
-------------------------------------------------------------------------------
Tabbed by: dr92
E-mail:

Tuning:

Intro/verse
e|---3----3-----------3-|
B|---4--3-3-----------3-|
G|-5-5--3-3--2h3-2--3-3-|
D|-5----3-3--3---3--5---|
A|-3----------------5---|
E|----------------------|

Chorus
e|---------------------------|
B|---------------------------|
G|---------------------------|
D|---------------------------|
A|-----1-3/5-3-----1---------|
E|-1-3---------1h3---3-1-1/3-|

Solo
e|-----8------8-------------------------8------8----------------7------|
B|-8---8--8---8-----7---7-7h8-------8---8--8---8-----7---7-7h8--7h8-7--|
G|-10b----10b---10~---7---7----7~---10b----10b---10~---7---7----7---7--|
D|---------------------------------------------------------------------|
A|---------------------------------------------------------------------|
E|---------------------------------------------------------------------|

e|-----8------8----------------------------------------------|
B|-8---8--8---8-----7---7-8----------------------6-----------|
G|-10b----10b---10~---7-----7\3-5br-3-3-5-3-2--5b--5br\3-----|
D|-------------------------------------------------------5p3-|
A|-----------------------------------------------------------|
E|-----------------------------------------------------------|

e|-----------------------------------------------------|
B|-----------------------------------------------------|
G|---3-5/7-5-----3--------------3-5/7-5-----3----------|
D|-5---------3h5---5-3-3/5--3-5---------3h5---5-3-3/5--|
A|-----------------------------------------------------|
E|-----------------------------------------------------|


************************************

| /   slide up
| \   slide down
| H   hammer-on
| p   pull-off
| ~   vibrato
| +   harmonic
| x   Mute note
| B   Bend
| pb  Pre-bend
| br  Bend release
| pbr Pre-bend release
| brb Bend release bend

************************************
Tap to rate this tab
# A B C D E F G H I J K L M N O P Q R S T U V W X Y Z