Song name
# A B C D E F G H I J K L M N O P Q R S T U V W X Y Z

Band Of Skulls - Hoochie Coochie tab

Tabbed by: Eric

Tuning: Standard

Intro (palm muted)         	
e|---------------------------------|
B|---------------------------------|
G|---------------------------------|
D|---------------------------------| x3
A|--77-77-77-77-77-77-5h6h7-5h6h7--|
E|--00-00-00-00-00-00--------------|

e|---------------------------------|
B|---------------------------------|
G|---------------------------------|
D|---------------------------------|
A|--77-77-77-77-77-77-77-77--------|
E|--00-00-00-00-00-00-00-00--------|
    
Verse (0:12)
e|---------------------------|-------------------------|
B|---------------------------|-------------------------|
G|---------------------------|-------------------------|
D|---------------------------|--------------------5-5--| x3
A|--77-77-77-77-77-77-77-77--|--77-77-77-77-77-77-5-5--|
E|--00-00-00-00-00-00-00-00--|--00-00-00-00-00-00-3-3--|
    
e|---------------------------|
B|---------------------------|
G|---------------------------|
D|---------------------------|
A|--77-77-77-77-77-77-77-77--|
E|--00-00-00-00-00-00-00-00--|

e|--------------------------------------------------------------------------------|
B|--------------------------------------------------------------------------------|
G|--------------------------------------------------------------------------------|
D|--------------------5-5-5-5-------------5-5-5-5-------------5-5-5-5-4-4-4-4-2~--|
A|--77-77-77-77-77-77-5-5-5-5-77-77-77-77-5-5-5-5-77-77-77-77-5-5-5-5-4-4-4-4-2~--|
E|--00-00-00-00-00-00-3-3-3-3-00-00-00-00-3-3-3-3-00-00-00-00-3-3-3-3-2-2-2-2-0~--|

Chorus (0:51)
e|---------------------------------------------|
B|---------------------------------------------|
G|---------------------------------------------| x3
D|---------------------------------------------|
A|--5h6h7-----5h6h7-----5h6h7-----5h6h7-5h6h7--|
E|--------0-0-------0-0-------0-0--------------|

e|---------------------------------------------|
B|---------------------------------------------|
G|---------------------------------------------|
D|-----------------------5-5-5-5---------------|
A|--5h6h7-----5h6h7------5-5-5-5---------------|
E|--------0-0-------0-0--3-3-3-3---------------|

Verse (1:04)

Chorus (1:43)

Bridge (1:56)
e|-----------------------------------|
B|-----------------------------------|
G|--4~----6~----8~----9~-------------|
D|--x-----x-----x-----x-----5-5-5-5--|
A|--2~----4~----6~----7~----5-5-5-5--|
E|--------------------------3-3-3-3--|

Outro
(2:10)
e|-----------------------------------------------|
B|-----------------------------------------------|
G|-----------------------------------------------| x3
D|-----------------------------------------------|
A|--5h6h7-----5h6h7-----5h6h7-----5h6h7-5h6h7----|
E|--------0-0-------0-0-------0-0----------------|

e|-----------------------------------------------|
B|-----------------------------------------------|
G|----------------------------------5h6h7--------|
D|----------------------------5h6h7-------5h6h7--|
A|--5h6h7-----5h6h7-----5h6h7--------------------|
E|--------0-0-------0-0--------------------------|

e|-----------------------------------------------|
B|-----------------------------------------------|
G|-----------------------------------------------| x3
D|-----------------------------------------------|
A|--5h6h7-----5h6h7-----5h6h7-----5h6h7-5h6h7----|
E|--------0-0-------0-0-------0-0----------------|

e|-----------------------------------------------|
B|-----------------------------------------------|
G|-----------------------------------------------|
D|-----------------------5-5-5-5-----------------|
A|--5h6h7-----5h6h7------5-5-5-5-----------------|
E|--------0-0-------0-0--3-3-3-3-----------------|

Tap to rate this tab
# A B C D E F G H I J K L M N O P Q R S T U V W X Y Z