Song name
# A B C D E F G H I J K L M N O P Q R S T U V W X Y Z

Band Zonder Banaan - Echte Vrienden tab

Help us improve GuitareTab! Take a short survey!
Hey guys,

e|---------------------7-9-10-10--9--7---------------|
B|-7--------7-8-10-10--------------------10----------|
G|---9--7-7------------------------------------------|
D|---------------------------------------------------|
A|---------------------------------------------------|
E|---------------------------------------------------|

e|-------10--10-10-9-7-------------------------------|
B|--7------------------10--10-10-8-7-----------7-----|
G|----7-------------------------------9--9--9-----9--|
D|---------------------------------------------------|
A|---------------------------------------------------|
E|---------------------------------------------------|

e|---------------------7-9-10-10--9--7---------------|
B|-7--------7-8-10-10--------------------10----------|
G|---9--7-7------------------------------------------|
D|---------------------------------------------------|
A|---------------------------------------------------|
E|---------------------------------------------------|

e|-------10--10-10-9-7-------------------------------|
B|--7------------------10--10-10-8-7----------7------|
G|----7-------------------------------9--9-------9-7-|
D|---------------------------------------------------|
A|---------------------------------------------------|
E|---------------------------------------------------|
Related for Echte Vrienden tab