Song name
# A B C D E F G H I J K L M N O P Q R S T U V W X Y Z

Band - The Weight tab

m: "Ben Barrett" 
Subject: b/band/the_weight.tab
Date: Wed, 15 Apr 1998 17:21:43 PDT

The Weight
The Band
Tour of Duty Soundtrack

Transcribed by Ben Barrett
gothboy81@hotmail.com

Here's the little intro

----0-2-5-0h2p0-------------------------
-0h2------------3---3-3-3--3-2-0-0h2----
----------------2h4-4-4-2--2-2-2-2------
-------------------------------2-2------
----------------------------------------
----------------------------------------

 Verse 

 A    Asus2 A    Amaj7  D    A    Asus2 x4
-0----0-----0----0------2----0----0-----
-2----0h2---2----2------3----2----0-----
-2----2-----2----1------2----2----2-----
-2----2-----2----2------0----2----2-----
-0----0-----0----0-----------0----0-----
----------------------------------------

 Chorus

 A    E    D  x2 then A    E    D    Dsus2
-0----0----2----------0----0----2----0----------------------------------------
-2----0----3----------2----0----3----3----------------------------------------
-2----1----2----------2----1----2----2----------------------------------------
-2----2----0----------2----2----0----0----------------------------------------
-0----2---------------0----2--------------------------------------------------
------0--------------------0--------------------------------------------------



First Verse
I pulled into Nazareth, was feelin' about half past dead;
I just need some place where I can lay my head.
"Hey, mister, can you tell me where a man might find a bed?"
He just grinned and shook my hand, and "No!", was all he said.

Chorus
Take a load off Fanny, take a load for free;
Take a load off Fanny, And  you can put the load right on me.

Second Verse
I picked up my bag, I went lookin' for a place to hide;
When I saw Carmen and the Devil walkin' side by side.
I said, "Hey, Carmen, come on, let's go downtown."
She said, "I gotta go, but m'friend can stick around."

Chorus

Third Verse
Go down, Miss Moses, there's nothin' you can say
It's just ol' Luke, and Luke's waitin' on the Judgement Day.
"Well, Luke, my friend, what about young Anna Lee?"
He said, "Do me a favor, son, woncha stay an' keep Anna Lee company?"

Chorus

Fourth Verse
Crazy Chester followed me, and he caught me in the fog.
He said, "I will fix your rack, if you'll take Jack, my dog."
I said, "Wait a minute, Chester, you know I'm a peaceful man."
He said, "That's okay, boy, won't you feed him when you can."

Chorus

Fith Verse
Catch a cannon ball now, t'take me down the line
My bag is sinkin' low and I do believe it's time.
To get back to Miss Fanny, you know she's the only one.
Who sent me here with her regards for everyone.

Chorus--====================987654321_0==_
Content-Type: text/plain; charset="us-ascii"

--====================987654321_0==_--
Tap to rate this tab
 
# A B C D E F G H I J K L M N O P Q R S T U V W X Y Z