Song name
# A B C D E F G H I J K L M N O P Q R S T U V W X Y Z

Banda Ni Kleggy - Bawal Sa Gamot tab

        Intro:

|-------------------------------------|
|-------------------------------------|
|------------12--12-------------------|
|--10--12/14--------10-10/12----------|
|-------------------------------------|
|-------------------------------------| 2x


Intro: Am-Am-Em-Em 2x
Verse: Am-Am-Em-Em 2x
       Am-Am-F -G

Chorus:F-G-C-(Am-G)2x
       F-G-Am-Am   2x
   

Verse: Am-Am-Em-Em 2x
       Am-Am-F -G

Chorus:F-G-C-(Am-G)2x
       F-G-Am-Am   2x
     

Solo:  F-G-C-(Am-G)2x
       F-G-Am-Am   2x
     
|---------------------------------------------------------------|
|-b15-b15-13-15-13-15--12h13-12h13------------------------------|
|-----------------------------------14----9h12----9\7-----------|
|-----------------------------------------------------9p7-------|
|---------------------------------------------------------------|
|---------------------------------------------------------------|

|---------------------------------------------------------------|
|------15--------15---------------------------------------------|
|--b14----14-b14----12---9h12-9h12-9h12--b14-12-----------------|
|---------------------------------------------------------------|
|---------------------------------------------------------------|
|---------------------------------------------------------------|

|--------------15-----------------------------------------------|
|--15/17-17-17----15-12h13-12h13-12h13p12-----------------------|
|-----------------------------------------14----------12--------|
|--------------------------------------------1/14-b14-----------|
|---------------------------------------------------------------|
|---------------------------------------------------------------|

|---------------------------------------------------------------|
|---------------------------------------------------------------|
|-b12-----------------------------------------------------------|
|-----14--------------------------------------------------------|
|--------15-15/17-15-12~----------------------------------------|
|---------------------------------------------------------------|

Chorus:F-G-C-(Am-G)2x
       F-G-Am-Am   2x

Chorus:F-G-C-(Am-G)2x
       F-G-Am-Am   2x

Outro: Am-Am-Em-Em 2x


Add Me On Fb:Lavern Vasallo :)
Tap to rate this tab
# A B C D E F G H I J K L M N O P Q R S T U V W X Y Z