Song name
# A B C D E F G H I J K L M N O P Q R S T U V W X Y Z

Bandits Of The Acoustic Revolution - They Provide The Paint For The Picture Perfect Masterpiece That You Will Paint On The Inside Of Your tab

e|---------------------------------------------------------------------------|
B|---------------------------------------------------------------------------|
G|-----------------------8-------------------------------------8------8--/10-|
D|-----8-10-11-----10-11----11-10-11-10-8---8--10--11--10--11-----11---------|
A|-11------------------------------------------------------------------------|
E|---------------------------------------------------------------------------|


e|---------------------------------------------------------------------------|
B|---------------------------------------------------------------------------|
G|-11---10--8---10--11--10--8--10--11----------------------------------------|
D|----8---8---8---8---8---8---8---8-----------6h8-6---6----6h8-6-8p6---------|
A|--------------------------------------------------8----------------8-------|
E|---------------------------------------------------------------------------|

e|---------------------------------------------------------------------------|
B|-------------------------------------9-7-6-7-6---6-------------------------|
G|------5--6--5--6--8--6--5--6--5----------------8---------------------------|
D|--6h8---------------------------8------------------------------------------|
A|---------------------------------------------------------------------------|
E|-------------------------------------------------------------------------
Tap to rate this tab
 
# A B C D E F G H I J K L M N O P Q R S T U V W X Y Z