Song name
# A B C D E F G H I J K L M N O P Q R S T U V W X Y Z

Bandits Of The Acoustic Revolution - Heres To Life Horns tab

----------------------------------------------------------------------------
			     Here's to Life - Bandits of the Acoustic Revolution
----------------------------------------------------------------------------
Tabbed by: Poncho de la Luna
Email: Skawhy@optonline.net

Tuning: standard

This tab was created by me after my all-nighter transcribing it by ear, an it's for the
parts of the song. All of the horns generally do the same thing (except in one part,
below), but eh, if anyone asks, its for Trumpet.

Riff 1: (Used in the intro to the Call to Arms and Here's to Life, also used throughout 
song)
e|--------------------------------------------------------------------------|
B|--------------------------------------------------------------------------|
G|-----------------------------------------------------5-------5------------|
D|-----------3--2-2-0-2--------------------3--7-6--7-7---7-5-5---5----------|
A|-0-2-3-2-0------------3-2-0---0-2-3-2-0-----------------------------------|
E|--------------------------------------------------------------------------|

e|------------------------------0-------------------------------------------|
B|------------------------------0-------------------------------------------|
G|------------------------------1---5-4-2-----------------------------------|
D|-3-3-3-5-2-0---------------3--2-------------------------------------------|
A|-------------3-2-0-2-3-2-0----2-------------------------------------------|
E|------------------------------0-------------------------------------------|

Riff 2: (The parts in paranthesis are played once, near the end of the song. This riff
used a few times throughout the song)
e|--------------------------------------------------------------------------|
B|--------------------------------------------------------------------------|
G|--------------------------------------------------------------------------|
D|-----3-2-0-----0---0-2-0-----------3-2-0-----0-(0-2-0---------------------|
A|-0-3-------3-3---3-------3-0---0-3-------3-3----------3)------------------|
E|--------------------------------------------------------------------------|

e|--------------------------------------------------------------------------|
B|--------------------------------------------------------------------------|
G|--------------------------------------------------------------------------|
D|-------3-2-0-----0---0-2-0-------------0-2-2-2-2-2-2-2--------------------|
A|-0-0-3-------3-3---3-------3-0---0-0-3------------------------------------|
E|--------------------------------------------------------------------------|

Riff 3: (Played after the first chorus)
e|--------------------------------------------------------------------------|
B|--------------------------------------------------------------------------|
G|--------------------------------------------------------------------------|
D|-2-0-2-0-2-3-2-----------2-----2-----2-3-2-0---2-0------------------------|
A|---------------3-0---0-3---0-3---0-3---------------3------0---------------|
E|-----------------------------------------------------5\3/5----------------|

Riff 4: (Played during each chorus and after the second NOTE: Everything on the E string
(7 3 5) is on Trombone, which in this part isn't the same as Trumpet. Clearly you can't
both on one guitar, but I put it on one bar to show where it goes in correspondance to 
Trumpet and save space.)
e|---------------------------------------------------------------------------|
B|---------------------------------------------------------------------------|
G|---------------------------------------------------------------------------|
D|---2~~~~2-0-------2~~~~2-0-------2~~~~2-0----------------------------------|
A|-0~~~0-0----3-2-0~~~0-0----3-2-0~~~0-0----3-2-0----------------------------|
E|--------7-----3-5------7-----3-5------7-----3-5----7-----3-5---------------|
          ^Bend          ^Bend          ^Bend        ^Bend

e|---------------------------------------------------------------------------|
B|---------------------------------------------------------------------------|
G|---------------------------------------------------------------------------|
D|---2~~~~2-0---------2~~~~2-0---------2~~~~2-0------------------------------|
A|-0~~~0-0----3-2-0~~~0-0----3-2-0~~~0-0----3-2-0----2~~~~~~~~---------------|
E|--------7-----3-5------7-----3-5------7-----3-5----------------------------|
          ^Bend            ^Bend            ^Bend

Riff 5(sorta): (This is played after the piano and such, Riff 2 comes in, and then at
end this is played)
e|--------------------------------------------------------------------------|
B|--------------------------------------------------------------------------|
G|-------------2-2-2-2-2-2-2-2-2-2-2-2--------------------------------------|
D|-2-2-2-2-2-2-2-2-2-2-2-2-2-2-2-2-2-2-2--0---------------------------------|
A|------------------------------------------3--2----------------------------|
E|--------------------------------------------------------------------------|

Well, that's it, and it should be near, if not, perfect. Email me any
to Skawhy@optonline.net. Thanks!

| /  slide up
| \  slide down
| h  hammer-on
| p  pull-off
| ~  vibrato
| +  harmonic
| x  Mute note
============================================================================
Tap to rate this tab
# A B C D E F G H I J K L M N O P Q R S T U V W X Y Z