Song name
# A B C D E F G H I J K L M N O P Q R S T U V W X Y Z

Bang Bang Boss Kelly - Lone Rider chords

Highlighted       Show chord diagrams
---------------------------------------------------------------------------
			     LONE RIDER - Bang Bang Boss Kelly
---------------------------------------------------------------------------

http://www.myspace.com/bangbangbosskelly
http://www.youtube.com/watch?v=PhcVJQ0r8gM

Tabbed by: Brisnix

Tuning: Standard

Bang Bang Boss Kelly - Rad alt-country band from Brisbane. 

I致e just done this off their film clip. Alex is using his thumb to either mute 
the 6th string or play the G throughout the riff. 

This is the riff played throughout the verses. Standard open chords are used in 
the chorus and bridge. 


e|------3---3-3-3-3---3---3-3-3-3---3---3-3-3-3---3---3-3-3-3-----|
B|------0---0-0-0-0---3---3-3-3-3---3h5-5-5-5-5---3---3-3-3-3-----|
G|------0---0-0-0-0---0---0-0-0-0---0---0-0-0-0---0---0-0-0-0-----|
D|------0---0-0-0-0---0---0-0-0-0---0---0-0-0-0---0---0-0-0-0-----|
A|----------------------------------------------------------------|
E|-----(3)--------------------------------------------------------|


VERSE
G
I see where the trees, come between you and me 
G
they stand miles high, just like us born to die 
G
lone rider again

G/C
Dust in my boots and I知 kicking these stones
G/C							G	G
Got a long way to go but I know that I値l find you back home,	Lonerider again

CHORUS
         Em    C         G
I知 a lone rider again x2

G	G	G/C	G/C

VERSE 2
G
Walk down your drive and knock on your door
G					     G/C
What do I see but someone I致e never seen before

G/C
Lone rider again
CHORUS
          Em     C       G
I知 a lone rider again x 4

BRIDGE
C               D               G
Keep on running I知 hot on your tail
C		    D	      		  G
I致e set these traps and you池e bound to fail
C		D		G
They say time heals wounds but I chose the ale
C		D	`		G
Just keep on running cause I知 hot on your tail


CHORUS
         Em      C        G
I知 a lone rider again x 4

G
Dust in my boots and I知 kicking these stones
G
Got a long way to go but I know that I値l find you back home
G
Lone rider again
G
Lone rider again


************************************

| /   slide up
| \   slide down
| h   hammer-on
| p   pull-off
| ~   vibrato
| +   harmonic
| x   Mute note
| b   Bend
| pb  Pre-bend
| br  Bend release
| pbr Pre-bend release
| brb Bend release bend

************************************
Tap to rate this tab
 
# A B C D E F G H I J K L M N O P Q R S T U V W X Y Z