Song name
# A B C D E F G H I J K L M N O P Q R S T U V W X Y Z

Bang Camaro - Pleasure tab

-------------------------------------------------------------------------------
			     Pleasure (Pleasure) - Bang Camaro
-------------------------------------------------------------------------------
Tabbed by: FacetOfChaos
Email: abcnumber4@yahoo.com

Tuning: 1/2 step down

(I had the tab edited with the flat sign on all the strings but it showed
a whole bunch of numbers and stuff instead. so please note that it is in 
fact a half step down.)

Intro Verse (corrected)
e|---------------------------------------------------------------------------|
B|-3-3-2-2-2-------1-1-1-1-1-------3-3-2-2-2-------1-1-1-1-1-----------------|
G|-2-2-2-2-2-------2-2-2-2-2-------2-2-2-2-2-------2-2-2-2-2-----------------|
D|-2-2-2-2-2-------2-2-3-3-3-------2-2-2-2-2-------2-2-3-3-3-----------------|
A|-----------0-0-0-----------0-0-0-----------0-0-0---------------------------|
E|---------------------------------------------------------------------------|

Transition to Verse
e|---------------------------------------------------------------------------|
B|-3-3-2---------------------------------------------------------------------|
G|-2-2-2-6-6-------5-5-5-5-5-------7-7-6-6-6-------5-5-5-5-5-----------------|
D|-2-2-2-7-7-------7-7-7-7-7-------7-7-7-7-7-------7-7-7-7-7-----------------|
A|-------7-7-0-0-0-7-7-8-8-8-0-0-0-7-7-7-7-7-0-0-0-7-7-8-8-8-----------------|
E|---------------------------------------------------------------------------|

Verse
(I believe that the verse is the same as the intro but on lower strings. This is easiest to 
play with your ring as an anchor on D string 7th fret)
e|---------------------------------------------------------------------------|
B|---------------------------------------------------------------------------|
G|-7-7-6-6-6-------5-5-5-5-5-------7-7-6-6-6-------5-5-5-5-5-----------------|
D|-7-7-7-7-7-------7-7-7-7-7-------7-7-7-7-7-------7-7-7-7-7-----------------|
A|-7-7-7-7-7-0-0-0-7-7-8-8-8-0-0-0-7-7-7-7-7-0-0-0-7-7-8-8-8-----------------|
E|---------------------------------------------------------------------------|

Filler A
e|----------9----------------|
B|-10-8-7-8-10^-10-----------|
G|---------------------------|
D|---------------------------|
A|---------------------------|
E|---------------------------|

Filler B / Transition to Pre-Chorus
e|--------------------------------------------------------------|
B|--------------------------------------------------------------|
G|-7-5-4---9-7-6---11-9-8----14-12-11~-----------------7--------|
D|-------7-------9--------11---------------------------7--------|
A|---------------------------------------------2-3-2---5--------|
E|-----------------------------------------3-5-------5----------|

Pre-Chorus (x is muted fret from the chord before it)
e|---------------------------------------------------------------------------|
B|---------------------------------------------------------------------------|
G|-------------------5-----7-------------------5-----9-----------------------|
D|-------------------5-5---7-------------------5-5---9-----------------------|
A|-x-x-x-x-x-x-x-x-x-3-5---5-x-x-x-x-x-x-x-x-x-3-5---7-x-x-x-x-x-x-x-x-x-----|
E|---------------------3-5-----------------------3-5-------------------------|

Pre-Chorus cont...
e|---------------------------------------------------------------------------|
B|---------------------------------------------------------------------------|
G|-7-----9-------8-------7-------6-------5---4-------------------------------|
D|-7-7---9-------8-------7-------6-------5---4-------------------------------|
A|-5-7---7-7-7-7-6-6-6-6-5-5-5-5-4-4-4-4-3-3-2-------------------------------|
E|---5-7---------------------------------------------------------------------|

Chorus. play chorus and ending A and then play chorus and ending B.
e|---------------------------------------------------------------------------|
B|---------------------------------------------------------------------------|
G|------10-------12-------12-10----------10-12h14p12-10----------------------|
D|---10-------12-------12-------12----12----------------12~------------------|
A|-8-------10-------10-------------10----------------------------------------|
E|---------------------------------------------------------------------------|

Chorus ending A
e|------------------(sweep)------------------------------12~-----------------|
B|-------(sweep)---------14------14--14--15--14-12-14-15---------------------|
G|-----------14--------14---14-----------------------------------------------|
D|----14---14--------14------------------------------------------------------|
A|-12----12-----12-12--------------------------------------------------------|
E|---------------------------------------------------------------------------|

Chorus Ending B (Go directly into this. It takes spot of the 12~ in Chorus)
e|---------------------------------------------------------------------------|
B|---------------------------------------------------------------------------|
G|-12--12-----7-7--9-9--9----------------------------------------------------|
D|-12--12-----7-7--9-9--9----------------------------------------------------|
A|-10--10-5-5-5-5--7-7--7--7\------------------------------------------------|
E|---------------------------------------------------------------------------|

Filler C. Play the verse again 3 times then play this fill.
e|------------------------------|
B|------------------------------|
G|-14-12-13---------------------|
D|----------14-12/14-12---------|
A|------------------------------|
E|------------------------------|

Mini-Solo. Play Verse B then play this.
e|-----------------------------------------------------------------------------|
B|-----------------------------------------------------------------------------|
G|-14-16-14-12-14-12----12-14-16-14-12-14-12----12-16-18-16-14-16-14----14-19^-|
D|-------------------16----------------------16----------------------18--------|
A|-----------------------------------------------------------------------------|
E|-----------------------------------------------------------------------------|

Now go back and play the Pre-Chorus and the chorus with both endings.

Solo A. Play this four times relatively fast.
e|---------------------------------------------------------------------------|
B|---------------------------------------------------------------------------|
G|-14-18-16-18-14-18-14-18-16-19-18-19-16-19-16-19-18-21-19-21-18-21-18-21---|
D|---------------------------------------------------------------------------|
A|---------------------------------------------------------------------------|
E|---------------------------------------------------------------------------|

e|-------------------------------------------|
B|-------------------------------------------|
G|-18-21-19-21-18-21-18-21-------------------|
D|-------------------------------------------|
A|-------------------------------------------|
E|-------------------------------------------|

Solo A Ending Shred
e|---------------------------------------------------------------------------|
B|----------------------------15-13-12---------------------------------------|
G|-------------------14-16-17----------14-12-11------------------------------|
D|----------14-16-17----------------------------15-14-12---------------------|
A|-14-16-17----------------------------------------------15-14-12------------|
E|----------------------------------------------------------------12~--------|

Solo B
e|-----------------------------------------------------------------------------|
B|-17--------------------------------------------------------------------------|
G|-18^-------------------------------------------------------------------------|
D|--------12---14*-12*-9*---------------------------------12-16-12-15-12----12-|
A|--------12-------------------------12-14-15-16-14-16-14----------------15----|
E|--------10----------------12-14-16-------------------------------------------|


e|---------------------------------------------------------------------------|
B|---------------------------------------------------------------------------|
G|------------------------------------16^--19-16-----------14-16-18----------|
D|-12-14-15-15^-15-14-12h14--14-16-18-------------12-14-16-------------------|
A|---------------------------------------------------------------------------|
E|---------------------------------------------------------------------------|

e|---------------------------------------------------------------------------|
B|-17^rb17p15-17-------------------------------------------------------------|
G|---------------16h19-19p18-14h16-16p14/13----------------------------------|
D|------------------------------------------16h18-16p14----------------------|
A|------------------------------------------------------16h18-16p14----------|
E|------------------------------------------------------------------14h16----|

e|---------------------------------------------------------------------------|
B|---------------------------------------------------------------------------|
G|---------------------------------------------------------------------------|
D|------------------------------------14~-13~-12~-11~-10~-9~-----7-----------|
A|---------------------------12h14h15----------------------------------------|
E|-14p12-11h12-11p9-12h14h15---------------------------------10/-------------|

Play the Verse twice then play the Bridge

Bridge. play twice
e|---------------------------------------------------------------------------|
B|----14-------14-------14-------14-------14-------14-------14-------14------|
G|-------14-------14-------14-------14-------14-------14-------14-------14---|
D|-14-------14-------14-------14-------14-------14-------14-------14-------14|
A|---------------------------------------------------------------------------|
E|---------------------------------------------------------------------------|

e|---------------------------------------------------------------------------|
B|-15-------15---------------------------------------------------------------|
G|----14-------14------------------------------------------------------------|
D|-------14-------14---------------------------------------------------------|
A|---------------------------------------------------------------------------|
E|---------------------------------------------------------------------------|

Now just play the chorus again and the song ends. :)

Please email me any corrections that you find.

| * Pinch Harmonic
| /  slide up
| \  slide down
| h  hammer-on
| p  pull-off
| ~  vibrato
| ^  bend
| x  Mute note
===============================================================================
Tap to rate this tab
 
# A B C D E F G H I J K L M N O P Q R S T U V W X Y Z