Song name
# A B C D E F G H I J K L M N O P Q R S T U V W X Y Z

Bang Camaro - Gates Of Love tab

Help us improve GuitareTab! Take a short survey!
----------------------------------------------------------------------------
			     Gates Of Love - Bang Camaro
----------------------------------------------------------------------------

*CREDIT TO Matt Gaydon for this tab.*


Okay, first off - This is the main intro of the song, I've included the Piano intro for 
as well if anyone wants to play that, cos i respect that the intro isn't exactly hard.

Also the solo intro that can be heard is here to help fix the shortness of the tab :)

----------------------------------------------------------------------------

Tabbed by: Jack "OS" Ford
Email: jack9898@hotmail.co.uk

e:----0------0------0------0-------0------0------0-----0-----|
B:---0-0----0-0----0-0----3-3-----0-0----0-0----0-0---3-3----|
G:-----------------------------------------------------------|
D:--2-------------------0--------2-------------------0-------|
A:---------3----------------------------3--------------------|
E:---------------3-----------------------------3-------------|

^ Standard Guitar

e-----------------------2-3-------3-2---|
B:--------------------0---------3-------|
G:--------------------------------------|
D:----------------------------0---------|
A:--------------------------------------|
E:------------------3-------------------|


^ Piano Arrangement For Guitar - This replaces the final two arpeggios.

e:-------------------------------7------------------------------|
B:------8-10-10^12--10-8-10^12-------10--8--7-8-7~~~~---7h8/10--|
G:--7/9---------------------------------------------------------|
D:--------------------------------------------------------------|
A:--------------------------------------------------------------|
E:--------------------------------------------------------------|


e:--10--8p7h8~~~---------------------------------------------7--|
B:--------------10--8-7-8-7/3/1------------8h10--------8h10-----|
G:------------------------------4~~~---7h9------9--7h9----------|
D:--------------------------------------------------------------|
A:--------------------------------------------------------------|
E:--------------------------------------------------------------|


e:----------7--8--10--8---7h8p7-------13^15--13^14--17^19--15^17|
B:--8h10-------------------------10-----------------------------|
G:--------------------------------------------------------------|
D:--------------------------------------------------------------|
A:--------------------------------------------------------------|
E:--------------------------------------------------------------|
Related for Gates Of Love tab