Song name
# A B C D E F G H I J K L M N O P Q R S T U V W X Y Z

Bang Camaro - Nightlife tab

Help us improve GuitareTab! Take a short survey!
Im not sure is this right way to play it, but it's as close I have gotten this far.
 I don't know the tuning or I don't have here the exact timing, so I recommend you to 
the song as you play.
PS: I skipped the original part that should be in the space between  this * mark.

Part 1
______________________________*_________*___________
e:----------------------------3--3-3-3-3-------------|
B:-2--2-2-2-2-----------------2--2-2-2-2-2-2-2-2-2-2-|
G:-2--2-2-2-2-2-2-2-2--------------------------------|
D:------------2-2-2-2-2-2-2-2------------2-2-2-2-2-2-|
A:------------1-1-1-1-3-3-3-3------------------------|
E:--------------------1-1-1-1-3--3-3-3-3-2-2-2-2-2-2-|

Part 2
______________________________*_________*___________
e:----------------------------3--3-3-3-3-------------|
B:-2--2-2-2-2-----------------2--2-2-2-2-2-2-2-2-2-2-|
G:-2--2-2-2-2-2-2-2-2------------------------------2-|
D:------------2-2-2-2-2-2-2-2------------2-2-2-2-2-1-|
A:------------1-1-1-1-3-3-3-3------------------------|
E:--------------------1-1-1-1-3--3-3-3-3-2-2-2-2-2---|
Related for Nightlife tab