Bang Camaro - Nightlife Commando tab

NIGHTLIFE COMMANDO.  By Bang Camaro. (Intro) tab

h= hammer on
\= slide down
/= slide up
~= let ring


INTRO:

(play it slow)
pattern:
     1..1-2-3..4..    1..1-2-3..4 .. 1			
e|----------------------------------------------|
B|----------------------------------------------|
G|----------------------------------------------|
D|---9--9-7-9~\12--10--10-9-10~-9--7--7-5-7~\10~|
A|----------------------------------------------|
E|----------------------------------------------|

	arpeggiated chord here.    strum loud
e|---------------------------------------------------|
B|---------------------------------------------0-----|
G|-------12/------10/-----8/-----6/-4~-------2---2---|
D|----10---/----8---/---6--/---4--/-2~-----0-------0-|
A|-12------/-10-----/-8----/-6----/-4~-0h2-----------|
E|---------------------------------------------------|
				
e|----------------------------------------0-----|
B|-1\3~-1----------1--------1-------------------|	
G|-2\4~-2----------2------2---2---------2---2---|	
D|---------3\5-3~--2----2-------2-----2-------2-|
A|--------------------0-------------0-----------|
E|----------------------------------------------|


Then:

     1..1-2-3..4..    1..1-2-3..4 .. 1			
e|----------------------------------------------|
B|----------------------------------------------|
G|----------------------------------------------|
D|-0\9--9-7-9~\12--10--10-9-10~-9--7--7-5-7~\10~|
A|----------------------------------------------|
E|----------------------------------------------|

	arpeggiated chord here.    strum loud
e|---------------------------------------------------|
B|---------------------------------------------0-----|
G|-------12/------10/-----8/-----6/-4~-------2---2---|
D|----10---/----8---/---6--/---4--/-2~-----0-------0-|
A|-12------/-10-----/-8----/-6----/-4~-0h2-----------|
E|---------------------------------------------------|


		   SLOWLY STRUM DOWN on both
e|----------------------0-----------------------|
B|-1\3~-1----------1----1-----------------------|	
G|-2\4~-2----------2----2-----------------------|	
D|---------3\5-3~--2----2-----------------------|
A|----------------------0-----------------------|
E|----------------------------------------------|
Tap to rate this tab
 
# A B C D E F G H I J K L M N O P Q R S T U V W X Y Z