Song name
# A B C D E F G H I J K L M N O P Q R S T U V W X Y Z

Bangles - Eternal Flame tab

----------------------------------------------------------------------------
                       Eternal Flame (solo) - Bangles
----------------------------------------------------------------------------

Tuning: Standard


e|------------------------------------------------------------------------|
B|-----10/12-12--12h13p12-------------------------------------------------|
G|------------------------14-12--12/14--11-11\9-9\7---5/7-7\5-4-5---------|
D|----------------------------------------------------------------5/7-----|
A|------------------------------------------------------------------------|
E|------------------------------------------------------------------------|

On the last 5/7 slide above, hold the 5 for a moment before sliding to
the 7.

e-------------------------------------------------------------------------|
B-------------------------------------------------------------------------|
G-------7-5-4-------------------------------------------------------------|
D-------------5-5/7-------------------------------------------------------|
A-------------------------------------------------------------------------|
E-------------------------------------------------------------------------|
Tap to rate this tab
 
# A B C D E F G H I J K L M N O P Q R S T U V W X Y Z