Song name
# A B C D E F G H I J K L M N O P Q R S T U V W X Y Z

Bangles - Enternal Flame tab

Half Step tuning:

Intro:


e------------------------|
B------------------------|
G---------5----------5---| X4
D-3-3-3-5---5----3-5---5-| 
A------------------------|
E------------------------|


Verse: Repeat X2


e------------------------|
B------------------------|
G---------5----------5---| X4 
D-3-3-3-5---5----3-5---5-| 
A------------------------|
E------------------------|


e------------------------|
B------------------------|
G---------7---------7----| X2
D-7-7-5-7---7---5-7---7--|
A------------------------|
E------------------------|


e------------------------|
B------------------------|
G---------5--------5-----|
D-5-5-3-5---5--3-5---5---|
A------------------------|
E------------------------|


e------------------------|
B------------------------|
G---------5----------5---| X2 
D-3-3-3-5---5----3-5---5-| 
A------------------------|
E------------------------|


Choruse: 

C      Cm   F                    C
Say my name sunshines through the rain

        Eb       F                   Bb  -   Am  -   Gm  -  F
A whole life so lonely and then you come and ease the pain

C       Am                  Bb    C
I don't wanna lose this feeling. Ooohhh.


Verse:


e------------------------|
B------------------------|
G---------5----------5---| X4 
D-3-3-3-5---5----3-5---5-| 
A------------------------|
E------------------------|

Choruse: 

C      Cm   F                    C
Say my name sunshines through the rain

        Eb       F                   Bb  -   Am  -   Gm  -  F
A whole life so lonely and then you come and ease the pain

C       Am                  Bb    C
I don't wanna lose this feeling. Ooohhh.


Verse: Repeat X3


e------------------------|
B------------------------|
G---------5----------5---| X4 
D-3-3-3-5---5----3-5---5-| 
A------------------------|
E------------------------|


e------------------------|
B------------------------|
G---------7---------7----| X2
D-7-7-5-7---7---5-7---7--|
A------------------------|
E------------------------|


e------------------------|
B------------------------|
G---------5--------5-----|
D-5-5-3-5---5--3-5---5---|
A------------------------|
E------------------------|


e------------------------|
B------------------------|
G---------5----------5---| X2 
D-3-3-3-5---5----3-5---5-| 
A------------------------|
E------------------------|

Outro:

e------------------------|
B------------------------|
G---------5----------5---| X4 
D-3-3-3-5---5----3-5---5-| 
A------------------------|
E------------------------|
Tap to rate this tab
# A B C D E F G H I J K L M N O P Q R S T U V W X Y Z