Song name
# A B C D E F G H I J K L M N O P Q R S T U V W X Y Z

Banjo Paterson - Waltzing Matilda tab

Waltzing Matilda - Banjo Patterson



e|----0--2--4----4----2----2--  --0--2--4--0--------0--|
B|----------------------------  --------------2--4-----|
G|----------------------------  -----------------------|
D|----------------------------  -----------------------|
A|----------------------------  --0-----------0--------|
E|----------0---------0-------  -----------------------|

e|---------0--4--7~~~7-7-7~~~-7-77~~--  ----0--2--4----4----2----2--|
B|----0-------------------------------  ----------------------------|
G|------------------------------------  ----------------------------|
D|------------------------------------  ----------------------------|
A|---------------0-------0------------  ----------------------------|
E|----0-------------------------------  ----------0---------0-------|

e|----0--2--4--0--------0----  ---------0--4--7----5--4--2----2h4p2--0--|
B|----------------2--4-------  ----0------------------------------------|
G|---------------------------  -----------------------------------------|
D|---------------------------  -----------------------------------------|
A|----0-----------0----------  ---------------0-------------------------|
E|---------------------------  ----0---------------------2----2------0--|

e|-----7--7--7-7--4----12--12--12-11--9--  --7--7--7-9-77--7----5--4--2---|
B|---------------------------------------  -------------------------------|
G|---------------------------------------  -------------------------------|
D|---------------------------------------  -------------------------------|
A|---------------------0----------0------  -----------------0----------2--|
E|----0------0---------------------------  --0-------0--------------------|

e|----0--2--4----4----2----2--  --0--2--4--0--------0--|
B|----------------------------  --------------2--4-----|
G|----------------------------  -----------------------|
D|----------------------------  -----------------------|
A|----------------------------  --0--------------0-----|
E|----------0---------0-------  -----------------------|

e|---------0--4--7~~--5--4--2~~--2h4p2--0--|
B|----0------------------------------------|
G|-----------------------------------------|
D|-----------------------------------------|
A|---------------0----------2--------------|
E|----0---------------------------------0--|
Tap to rate this tab
 
# A B C D E F G H I J K L M N O P Q R S T U V W X Y Z