Song name
# A B C D E F G H I J K L M N O P Q R S T U V W X Y Z

Banjo Paterson - Walzting Matilda tab

   D            A       Bm          G     D
E |-----------------------------------------------|
B |-----------------------------------------------|
G |-----------------------------------------------|
D |-4----4-4--4--2---2---0--2---4--0-------0------|
A |----------------------------------2---4--------|
E |-----------------------------------------------|
   f#   f#f# f# e   e   d  e   f# d b   c# d
   Once a Jolly swagman camp'd by a billa-bong


  D         A7/E       D/f#   A7/E  D           D          A
E |-------------------------------------------------------------------|
B |-------------------------------------------------------------------|
G |----------2-----2--2-2---2--2-----2--------------------------------|
D |--0---4--------------------------------0---2--4----4--4--2-------2-|
A |0------------------------------------------------------------------|
E |-------------------------------------------------------------------|
  a d   f#  a     a  a a   a  a     a    d   e  f#   f# f# e       e
  Under the shade of a coo-li-bah   tree And he sang as he watch'd and


  Bm              G             D/A                      A7         D
E |---------------------------------------------------------------------|
B |---------------------------------------------------------------------|
G |-------------------------------------------2----0--------------------|
D |0---2--4----0---------0--------------0---4----------4--2--2--2----0--|
A |----------------2--4----------0--------------------------------------|
E |---------------------------------------------------------------------|
  d   e  f#   d   b  c# d       a      d   f# a   g   f# e  e  e    d
  waited till his billy boiled, You'll come a waltzing Matilda with me


  D/F#             G          D     D            G    D     D/F#       A/C#
E |------------------------------------------------------------------------|
B |-----------------3---3----2-0------------------0------------------------|
G |2---2----2-2-------------------2--2-----2----2------2---2-2--0----------|
D |--------------4-------------------------------------------------4----2--|
A |------------------------------------------------------------------------|
E |------------------------------------------------------------------------|
  a   a    a a  f# d   d    c# b a  a     a    a b    a   a a  g  f#   e
  Waltzing Matilda waltzing Matilda You'l come a waltzing Matilda with me

	 D          A7          Bm             G
E |---------------------------------------------------------------|
B |---------------------------------------------------------------|
G |---------------------------------------------------------------|
D |0---2--4----4--4--2-------2---0--2---4---0---------0-----------|
A |---------------------------------------------2--4--------------|
E |---------------------------------------------------------------|
  d   e  f#   f# f# e       e   d  e   f#  d   b  c# d
  And he sang as he watched and waited til his billy boiled


  D/A                      A7         D
E |---------------------------------------------------------------|
B |---------------------------------------------------------------|
G |--------------2---0--------------------------------------------|
D |-------0----4----------4-2--2--2----0--------------------------|
A |0--------------------------------------------------------------|
E |---------------------------------------------------------------|
  a      d    f# a  g    f# e e  e    d
  You'll come a waltzing Matilda with me.


You repeat the same riff to the last verse, these are the lyrics.


Down came a jumbuck to drink at that billabong
Up Jumped the swagman and grabbed him with glee
And he sang as he stowed that jumpbuck in his tucker bag
You'll come a-waltzing Matilda with me

Up rode the Squatter, mounted on his thoroughbred
Down came the troopers, one , two, three
Whose that jolly jumbuck you've got in ya tucker-bag?
You'll come a-waltzing Matilda with me

Up jumped the Swagman and sprang into the billabong
You'll never catch me alive said he,
And his ghost may be heard as you pass by that billabong
Who'll come a waltzing Matilda with me


Enjoy, any problems, contact me whenever.
Tap to rate this tab
 
# A B C D E F G H I J K L M N O P Q R S T U V W X Y Z