Song name
# A B C D E F G H I J K L M N O P Q R S T U V W X Y Z

Bankrupt - Record Store Renegade tab

Band/Arist: Bankrupt
Song Title: Record Store Renegade
Album: Shorter Than Danny DeVito
Tabbed by: Colin Ball

This is my first tab so if i suck just chill...please rate it

/ - slide up
\ - Slide down
H - Hammer on
b - Bend
~ - Let it ring
.  Palm Mute

Intro:
e--------------------------------|
B--------------------------------|
G--66bh4----66bh4---66bh4--4-4---|   x2
D-6-----h6-6-----6-4------4-2----|
A--------------------------------|
E--------------------------------|

Verse/Guitar 1:
e-----------------------------------------|
B-----------------------------------------|
G-------------------444444----------------|   x3
D-66666666666-22222-444444----------------|
A-66666666666-22222-222222----------------|
E-44444444444-00000-----------------------|
    ...   ...
Guitar 2:
e-----------------------------------------------|
B-----------------------------------------------|
G-----------------------------------------------|
D--6repeatedly ---------------------------------|
A-----------------------------------------------|
E-----------------------------------------------|
And Then....
Guitar 1:
e--------------------|
B--------------------|
G-6----4-------------|
D-6-x8-4-x5----------|
A-4----2-------------|
E--------------------|

Guitar 2 with G1:
e----------------------------|
B----------------------------|
G----------------66666666----|
D-6666-8888-9999-------------|
A----------------------------|
E----------------------------|

Chorus:
e-----------------------------------------------|
B-----------------------------------------------|
G------4--------------------4-------------------|
D-6----4-x8-4----2-----6----4-x8-4--------------|
A-6-x8-2----4-x8-2-x8--6-x8-2----4-x8-----------|
E-4---------2----0-----4---------2--------------|

Repeat Verse

Chorus:
e-----------------------------------------------|
B-----------------------------------------------|
G------4--------------------4-------------------|
D-6----4-x8-4----2-----6----4-x8-4-----2--------|
A-6-x8-2----4-x8-2-x8--6-x8-2----4-x11-2--------|
E-4---------2----0-----4---------2-----0--------|

e-----------------------------------------------|
B-----------------------------------------------|
G------4--------------------4-------------------|
D-6----4-x8-4----2-----6----4-x8-4--------------|
A-6-x8-2----4-x8-2-x8--6-x8-2----4-x12----------|
E-4---------2----0-----4---------2--------------|

Solo
Guitar 1:
e------------------------------------------|
B------------------------------------------|
G------------------------------------------|  x2
D-6b~-6-8-6\4\1~---/8b~-8-11-8\6~----------|
A------------------------------------------|
E------------------------------------------|

Guitar 2:
e---------------------------------|
B---------------------------------|
G---------4-----------------------|  x2
D--6------4-x14--4------2---------|
A--6-x14--2------4-x14--2-x14-----|
E--4-------------2------0---------|

Chorus:
e-----------------------------------------------|
B-----------------------------------------------|
G------4--------------------4-------------------|
D-6----4-x8-4----2-----6----4-x8-4-----2--------|
A-6-x8-2----4-x8-2-x8--6-x8-2----4-x11-2--------|
E-4---------2----0-----4---------2-----0--------|

e-----------------------------------------------|
B-----------------------------------------------|
G------4--------------------4-------------------|
D-6----4-x8-4----2-----6----4-x8-4~-------------|
A-6-x8-2----4-x8-2-x8--6-x8-2----4~-------------|
E-4---------2----0-----4---------2~-------------|

Definitely listen to the song to pick up the rythem and struming pattern
http://www.bankrupt.hu/
Tap to rate this tab
# A B C D E F G H I J K L M N O P Q R S T U V W X Y Z