Banner Pilot - Write It Down tab

----------------------------------------------------------------------------
			     WRITE IT DOWN - Banner Pilot
-----------------------------------------------------------------------------
Tabbed by: laterthatnight

Tuning: Standard

Structure:

Intro
Verse x2
Chorus x2
Verse
Bridge
Outro

Intro

e|---------------------------------------|
B|---------------------------------------|
G|--44444444-44444444-44444444-44444444--|
B|--44444444-44444444-44444444-44444444--|
A|--22222222-22222222-22222222-22222222--|
E|---------------------------------------|

Verse

e|---------------------------------------|
B|---------------------------------------|
G|--44444444-----------------------------|
B|--44444444-22222222-66666666-44444444--|
A|--22222222-22222222-66666666-44444444--|
E|-----------00000000-44444444-22222222--|  x 2

then

e|--------------------------------------|
B|--------------------------------------|
G|--------------------------------------|
B|--2222222222222222-66666666-44444444--|
A|--2222222222222222-66666666-44444444--|
E|--0000000000000000-44444444-22222222--|   x 2


Chorus

e|---------------------------------------|
B|---------------------------------------|
G|--44444444-----------------------------|
B|--44444444-44444444-66666666-22222222--|
A|--22222222-44444444-66666666-22222222--|
E|-----------22222222-44444444-00000000--|


Bridge/Outro

Lead (Bridge And Outro):
e|-----------------------------|
B|-----------------------------|
G|---------------9-8---11-9-8--|
B|-------9-11-9------9---------|
A|--9h11-----------------------|
E|-----------------------------|

Rhythm (Just Outro):
e|------------------------------------------|
B|------------------------------------------|
G|-----------4444--------------------44-66--|
B|--22222222-4444-4444-66666666-4444-44-66--|
A|--22222222-2222-4444-66666666-4444-22-44--|
E|--00000000------2222-44444444-2222--------|


http://www.fatwreck.com/band/index/95
Tap to rate this tab
 
# A B C D E F G H I J K L M N O P Q R S T U V W X Y Z