Song name
# A B C D E F G H I J K L M N O P Q R S T U V W X Y Z

Banner Pilot - Losing Daylight tab

Song:    Losing Daylight
Band:    Banner Pilot
Album:   Collapser
Tuning:  Standard

PM . - Palm mute
h - Hammer-on

Intro

Gt.1
|-----------------------------------------------|
|--------7---2h4-2---2h4-2---------4-----2h4-2--|
|--4h6-4---4-------4-------4-4h6-4---4-4--------|
|-----------------------------------------------|
|-----------------------------------------------|
|-----------------------------------------------| x3

|-------------------------------------------------|
|--------7---2h4-2---2h4-2---------4-----2h4-2----|
|--4h6-4---4-------4-------4-4h6-4---4-4-------4--|
|-------------------------------------------------|
|-------------------------------------------------|
|-------------------------------------------------|

Gt.2
|--------------------------------------|
|--------------------------------------|
|--44444444----------------------------|
|--44444444-4444-6666-222222222222222--|
|--22222222-4444-6666-222222222222222--|
|-----------2222-4444-000000000000000--|x4

Verse

|-----------------------------------------------------------------|
|-----------------------------------------------------------------|
|--4-444444444444-------------------------------------------------|
|--4-444444444444-4-44444444444-2-222222222222-66666666-44444444--|
|--2-222222222222-4-44444444444-2-222222222222-66666666-44444444--|
|-----------------2-22222222222-0-000000000000-44444444-22222222--|x2
PM   ............   ...........   ............

Verse Part.2

|--------------------------------------|
|--------------------------------------|
|-----------4444-----------------------|
|--22222222-4444-6666-444444444444444--|
|--22222222-2222-6666-444444444444444--|
|--00000000------4444-222222222222222--|x2

Chorus

|------------------------------------------------------------------|
|------------------------------------------------------------------|
|--44444444444444--------------------------------------------------|
|--44444444444444-66666666666666-44444444444444-66666666-22222222--|
|--22222222222222-66666666666666-44444444444444-66666666-22222222--|
|-----------------44444444444444-22222222222222-44444444-00000000--|x2

Then

|--------------------------------------|
|--------------------------------------|
|--44444444----------------------------|
|--44444444-44444444-2222222222222222--|
|--22222222-44444444-2222222222222222--|
|-----------22222222-0000000000000000--|x2

Repeat Verse but on the 2nd time let the last chord ring 

Repeat Verse part.2

Repeat Chorus & part after it

Bridge/Outro

Gt.1
|-------------------|
|-------------------|
|--11-9-8-6-8-9-8---|
|-------------------|
|-------------------|
|-------------------| Plays until end.

Gt.2
|-------------------------------------------|
|-------------------------------------------|
|--4444444-4--------------------------------|
|--4444444-4-4444444-4-2222222-2-2222222-2--|
|--2222222-2-4444444-4-2222222-2-2222222-2--|
|------------2222222-2-0000000-0 0000000-0--|x2
PM .......   .......   .......   .......

Then 

|--------------------------------------|
|--------------------------------------|
|--44444444----------------------------|
|--44444444-44444444-2222222222222222--|
|--22222222-44444444-2222222222222222--|
|-----------22222222-0000000000000000--|x3

|-------------------------|
|-------------------------|
|--44444444---------------|
|--44444444-4444-4-4-4-2--|
|--22222222-4444-4-4-4-2--|
|-----------2222-2-2-2-0--|

That's it, enjoy.

Will be doing more tasty banner pilot soon.




Tap to rate this tab
# A B C D E F G H I J K L M N O P Q R S T U V W X Y Z