Song name
# A B C D E F G H I J K L M N O P Q R S T U V W X Y Z

Banner Pilot - Starting At The Ending tab

Banner Pilot - Starting at the Ending

Intro
e-----------------------------------------------------------------|
B-----------------------------------------------------------------|
G--7-----------7-----------7-----------7--------------------------|
D--7--7--7--5--7--7--7--5--7--7--2--5--7--7--2--5-----------------|
A--5--7--7--5--5--7--7--5--5--7--2--5--5--7--2--5-----------------|
E-----5--5--3-----5--5--3-----5--0--3-----5--0--3-----------------|

Verse - Counting down the days...
e-----------------------------------------------------|
B-----------------------------------------------------|
G--7--------------------------------------------------|
D--7--7--2--5-----------------------------------------|
A--5--7--2--5-----------------------------------------|
E-----5--0--3-----------------------------------------|

Chorus - Reaching front door...
e---------------------------------------------------------|
B---------------------------------------------------------|
G--7-----------7------------------------------------------|
D--7--7--9--5--7--7--2--5---------------------------------|
A--5--7--9--5--5--7--2--5---------------------------------|
E-----5--7--3-----5--0--3---------------------------------|

Chorus pt. 2 (I guess) - I've got nothing left...
e-----------------------------------------------------|
B-----------------------------------------------------|
G-----------------------------------------------------|
D--7--9--2--5-----------------------------------------|
A--7--9--2--5-----------------------------------------|
E--5--7--0--3-----------------------------------------|

Outro
e-----------------------------------------------------|
B-----------------------------------------------------|
G--7--------------------------------------------------|
D--7--7--7--5-----------------------------------------|
A--5--7--7--5-----------------------------------------|
E-----5--5--3-----------------------------------------|

Song Layout

Intro
Verse
Chorus
Chorus 2
Verse
Chorus
Chorus 2
Outro

This is my first tab, holler with some feedback.
Timing is super easy if you listen to the song
Tap to rate this tab
# A B C D E F G H I J K L M N O P Q R S T U V W X Y Z