Song name
# A B C D E F G H I J K L M N O P Q R S T U V W X Y Z

Banner - Die Fighting tab

this tab doesnt tab out the strumming patterns but if you listen to the song its really easy

verse

----------------------------------------------------------|
----------------------------------------------------------|
----------------10-9-7-10-9-----------------10-9-7-10-9-7-|
0-0-0-0-0-0-0-0-------------3-3-3-3-3-3-3-3---------------|
0-0-0-0-0-0-0-0-8--7-5-8--7-3-3-3-3-3-3-3-3-8--7-5-8--7-5-|
0-0-0-0-0-0-0-0-------------3-3-3-3-3-3-3-3---------------|

chorus

------|
------|
7-9-10
------|
5-7-8-|
------|

bridge

--------------------------------|
--------------------------------|
9----10-5----10-9----10-7---5---|
--------------------------------|
7-----8-3-----8-7-----8-5---3---|
--------------------------------|

lead guitar during build up and breakdown

--------------------------------|
--------------------------------|
77777777777777773333333355555555
--------------------------------
55555555555555551111111133333333
--------------------------------

thats it.  there are some lead like parts but from using this tab and your ears youll be 
to figure them out.
Tap to rate this tab
# A B C D E F G H I J K L M N O P Q R S T U V W X Y Z